  0
SECTION
  2
HEADER
  9
$MEASUREMENT
  70
  1
  9
$INSUNITS
  70
  4
  0
ENDSEC
  0
SECTION
  2
TABLES
  0
TABLE
  2
LTYPE
 70
     1
  0
LTYPE
  2
CONTINUOUS
 70
    64
  3
Ausgezogene Linie
 72
    65
 73
     0
 40
0.0
  0
ENDTAB
  0
TABLE
  2
LAYER
 70
     3
  0
LAYER
  2
Kontur
 70
    64
 62
     7
  6
CONTINUOUS
  0
LAYER
  2
Gravur
 70
    64
 62
     7
  6
CONTINUOUS
  0
LAYER
  2
Bezugspunkte
 70
    64
 62
     1
  6
CONTINUOUS
  0
ENDTAB
  0
TABLE
  2
STYLE
 70
     1
  0
STYLE
  2
TXT
 70
    64
 40
0.0
 41
1.0
 50
0.0
 71
     0
 42
3.500000
  3
TXT
  0
ENDTAB
  0
ENDSEC
  0
SECTION
  2
BLOCKS
  0
ENDSEC
  0
SECTION
  2
ENTITIES
  0
ARC
  8
Kontur
 62
   7
 39
0.100
  6
CONTINUOUS
 10
162.00000
 20
40.00000
 30
 0
 40
2.00000
 50
0.00000
 51
90.00000
  0
LINE
  8
Kontur
 62
   7
 39
0.100
  6
CONTINUOUS
 10
164.00000
 20
40.00000
 30
 0
 11
164.00000
 21
2.00000
  0
ARC
  8
Kontur
 62
   7
 39
0.100
  6
CONTINUOUS
 10
162.00000
 20
2.00000
 30
 0
 40
2.00000
 50
-90.00000
 51
0.00000
  0
LINE
  8
Kontur
 62
   7
 39
0.100
  6
CONTINUOUS
 10
162.00000
 20
0.00000
 30
 0
 11
2.00000
 21
0.00000
  0
ARC
  8
Kontur
 62
   7
 39
0.100
  6
CONTINUOUS
 10
2.00000
 20
2.00000
 30
 0
 40
2.00000
 50
180.00000
 51
270.00000
  0
LINE
  8
Kontur
 62
   7
 39
0.100
  6
CONTINUOUS
 10
0.00000
 20
2.00000
 30
 0
 11
0.00000
 21
40.00000
  0
ARC
  8
Kontur
 62
   7
 39
0.100
  6
CONTINUOUS
 10
2.00000
 20
40.00000
 30
 0
 40
2.00000
 50
90.00000
 51
180.00000
  0
LINE
  8
Kontur
 62
   7
 39
0.100
  6
CONTINUOUS
 10
2.00000
 20
42.00000
 30
 0
 11
162.00000
 21
42.00000
  0
LINE
  8
Kontur
 62
   7
 39
0.100
  6
CONTINUOUS
 10
160.14700
 20
34.80300
 30
 0
 11
160.20100
 21
34.80600
  0
LINE
  8
Kontur
 62
   7
 39
0.100
  6
CONTINUOUS
 10
160.20100
 20
34.80600
 30
 0
 11
160.25500
 21
34.81100
  0
LINE
  8
Kontur
 62
   7
 39
0.100
  6
CONTINUOUS
 10
160.25500
 20
34.81100
 30
 0
 11
160.43800
 21
34.83100
  0
LINE
  8
Kontur
 62
   7
 39
0.100
  6
CONTINUOUS
 10
160.43800
 20
34.83100
 30
 0
 11
160.49200
 21
34.83800
  0
LINE
  8
Kontur
 62
   7
 39
0.100
  6
CONTINUOUS
 10
160.49200
 20
34.83800
 30
 0
 11
160.54600
 21
34.84700
  0
LINE
  8
Kontur
 62
   7
 39
0.100
  6
CONTINUOUS
 10
160.54600
 20
34.84700
 30
 0
 11
160.60000
 21
34.85800
  0
LINE
  8
Kontur
 62
   7
 39
0.100
  6
CONTINUOUS
 10
160.60000
 20
34.85800
 30
 0
 11
160.78000
 21
34.89800
  0
LINE
  8
Kontur
 62
   7
 39
0.100
  6
CONTINUOUS
 10
160.78000
 20
34.89800
 30
 0
 11
160.83400
 21
34.91100
  0
LINE
  8
Kontur
 62
   7
 39
0.100
  6
CONTINUOUS
 10
160.83400
 20
34.91100
 30
 0
 11
160.88600
 21
34.92500
  0
LINE
  8
Kontur
 62
   7
 39
0.100
  6
CONTINUOUS
 10
160.88600
 20
34.92500
 30
 0
 11
160.93700
 21
34.94100
  0
LINE
  8
Kontur
 62
   7
 39
0.100
  6
CONTINUOUS
 10
160.93700
 20
34.94100
 30
 0
 11
161.11100
 21
35.00000
  0
LINE
  8
Kontur
 62
   7
 39
0.100
  6
CONTINUOUS
 10
161.11100
 20
35.00000
 30
 0
 11
161.16200
 21
35.01900
  0
LINE
  8
Kontur
 62
   7
 39
0.100
  6
CONTINUOUS
 10
161.16200
 20
35.01900
 30
 0
 11
161.21300
 21
35.03900
  0
LINE
  8
Kontur
 62
   7
 39
0.100
  6
CONTINUOUS
 10
161.21300
 20
35.03900
 30
 0
 11
161.25700
 21
35.05900
  0
LINE
  8
Kontur
 62
   7
 39
0.100
  6
CONTINUOUS
 10
161.25700
 20
35.05900
 30
 0
 11
161.42400
 21
35.13600
  0
LINE
  8
Kontur
 62
   7
 39
0.100
  6
CONTINUOUS
 10
161.42400
 20
35.13600
 30
 0
 11
161.47300
 21
35.16000
  0
LINE
  8
Kontur
 62
   7
 39
0.100
  6
CONTINUOUS
 10
161.47300
 20
35.16000
 30
 0
 11
161.52200
 21
35.18500
  0
LINE
  8
Kontur
 62
   7
 39
0.100
  6
CONTINUOUS
 10
161.52200
 20
35.18500
 30
 0
 11
161.56900
 21
35.21200
  0
LINE
  8
Kontur
 62
   7
 39
0.100
  6
CONTINUOUS
 10
161.56900
 20
35.21200
 30
 0
 11
161.72700
 21
35.30700
  0
LINE
  8
Kontur
 62
   7
 39
0.100
  6
CONTINUOUS
 10
161.72700
 20
35.30700
 30
 0
 11
161.81900
 21
35.36700
  0
LINE
  8
Kontur
 62
   7
 39
0.100
  6
CONTINUOUS
 10
161.81900
 20
35.36700
 30
 0
 11
161.85800
 21
35.39600
  0
LINE
  8
Kontur
 62
   7
 39
0.100
  6
CONTINUOUS
 10
161.85800
 20
35.39600
 30
 0
 11
162.00500
 21
35.50700
  0
LINE
  8
Kontur
 62
   7
 39
0.100
  6
CONTINUOUS
 10
162.00500
 20
35.50700
 30
 0
 11
162.04800
 21
35.54100
  0
LINE
  8
Kontur
 62
   7
 39
0.100
  6
CONTINUOUS
 10
162.04800
 20
35.54100
 30
 0
 11
162.09000
 21
35.57600
  0
LINE
  8
Kontur
 62
   7
 39
0.100
  6
CONTINUOUS
 10
162.09000
 20
35.57600
 30
 0
 11
162.13700
 21
35.61900
  0
LINE
  8
Kontur
 62
   7
 39
0.100
  6
CONTINUOUS
 10
162.13700
 20
35.61900
 30
 0
 11
162.27000
 21
35.74600
  0
LINE
  8
Kontur
 62
   7
 39
0.100
  6
CONTINUOUS
 10
162.27000
 20
35.74600
 30
 0
 11
162.30900
 21
35.78500
  0
LINE
  8
Kontur
 62
   7
 39
0.100
  6
CONTINUOUS
 10
162.30900
 20
35.78500
 30
 0
 11
162.34600
 21
35.82500
  0
LINE
  8
Kontur
 62
   7
 39
0.100
  6
CONTINUOUS
 10
162.34600
 20
35.82500
 30
 0
 11
162.37700
 21
35.86000
  0
LINE
  8
Kontur
 62
   7
 39
0.100
  6
CONTINUOUS
 10
162.37700
 20
35.86000
 30
 0
 11
162.49600
 21
36.00000
  0
LINE
  8
Kontur
 62
   7
 39
0.100
  6
CONTINUOUS
 10
162.49600
 20
36.00000
 30
 0
 11
162.53100
 21
36.04200
  0
LINE
  8
Kontur
 62
   7
 39
0.100
  6
CONTINUOUS
 10
162.53100
 20
36.04200
 30
 0
 11
162.56400
 21
36.08600
  0
LINE
  8
Kontur
 62
   7
 39
0.100
  6
CONTINUOUS
 10
162.56400
 20
36.08600
 30
 0
 11
162.59400
 21
36.12800
  0
LINE
  8
Kontur
 62
   7
 39
0.100
  6
CONTINUOUS
 10
162.59400
 20
36.12800
 30
 0
 11
162.69800
 21
36.28100
  0
LINE
  8
Kontur
 62
   7
 39
0.100
  6
CONTINUOUS
 10
162.69800
 20
36.28100
 30
 0
 11
162.72700
 21
36.32700
  0
LINE
  8
Kontur
 62
   7
 39
0.100
  6
CONTINUOUS
 10
162.72700
 20
36.32700
 30
 0
 11
162.75600
 21
36.37400
  0
LINE
  8
Kontur
 62
   7
 39
0.100
  6
CONTINUOUS
 10
162.75600
 20
36.37400
 30
 0
 11
162.78200
 21
36.42100
  0
LINE
  8
Kontur
 62
   7
 39
0.100
  6
CONTINUOUS
 10
162.78200
 20
36.42100
 30
 0
 11
162.86800
 21
36.58300
  0
LINE
  8
Kontur
 62
   7
 39
0.100
  6
CONTINUOUS
 10
162.86800
 20
36.58300
 30
 0
 11
162.89300
 21
36.63200
  0
LINE
  8
Kontur
 62
   7
 39
0.100
  6
CONTINUOUS
 10
162.89300
 20
36.63200
 30
 0
 11
162.91600
 21
36.68100
  0
LINE
  8
Kontur
 62
   7
 39
0.100
  6
CONTINUOUS
 10
162.91600
 20
36.68100
 30
 0
 11
162.93700
 21
36.73200
  0
LINE
  8
Kontur
 62
   7
 39
0.100
  6
CONTINUOUS
 10
162.93700
 20
36.73200
 30
 0
 11
163.00500
 21
36.90300
  0
LINE
  8
Kontur
 62
   7
 39
0.100
  6
CONTINUOUS
 10
163.00500
 20
36.90300
 30
 0
 11
163.02400
 21
36.95400
  0
LINE
  8
Kontur
 62
   7
 39
0.100
  6
CONTINUOUS
 10
163.02400
 20
36.95400
 30
 0
 11
163.04200
 21
37.00600
  0
LINE
  8
Kontur
 62
   7
 39
0.100
  6
CONTINUOUS
 10
163.04200
 20
37.00600
 30
 0
 11
163.05700
 21
37.05900
  0
LINE
  8
Kontur
 62
   7
 39
0.100
  6
CONTINUOUS
 10
163.05700
 20
37.05900
 30
 0
 11
163.10600
 21
37.23700
  0
LINE
  8
Kontur
 62
   7
 39
0.100
  6
CONTINUOUS
 10
163.10600
 20
37.23700
 30
 0
 11
163.12000
 21
37.29000
  0
LINE
  8
Kontur
 62
   7
 39
0.100
  6
CONTINUOUS
 10
163.12000
 20
37.29000
 30
 0
 11
163.13100
 21
37.34300
  0
LINE
  8
Kontur
 62
   7
 39
0.100
  6
CONTINUOUS
 10
163.13100
 20
37.34300
 30
 0
 11
163.14000
 21
37.39000
  0
LINE
  8
Kontur
 62
   7
 39
0.100
  6
CONTINUOUS
 10
163.14000
 20
37.39000
 30
 0
 11
163.17000
 21
37.57100
  0
LINE
  8
Kontur
 62
   7
 39
0.100
  6
CONTINUOUS
 10
163.17000
 20
37.57100
 30
 0
 11
163.17800
 21
37.62500
  0
LINE
  8
Kontur
 62
   7
 39
0.100
  6
CONTINUOUS
 10
163.17800
 20
37.62500
 30
 0
 11
163.18400
 21
37.67900
  0
LINE
  8
Kontur
 62
   7
 39
0.100
  6
CONTINUOUS
 10
163.18400
 20
37.67900
 30
 0
 11
163.18800
 21
37.73500
  0
LINE
  8
Kontur
 62
   7
 39
0.100
  6
CONTINUOUS
 10
163.18800
 20
37.73500
 30
 0
 11
163.19800
 21
37.91900
  0
LINE
  8
Kontur
 62
   7
 39
0.100
  6
CONTINUOUS
 10
163.19800
 20
37.91900
 30
 0
 11
163.20000
 21
37.97300
  0
LINE
  8
Kontur
 62
   7
 39
0.100
  6
CONTINUOUS
 10
163.20000
 20
37.97300
 30
 0
 11
163.20000
 21
38.02800
  0
LINE
  8
Kontur
 62
   7
 39
0.100
  6
CONTINUOUS
 10
163.20000
 20
38.02800
 30
 0
 11
163.19800
 21
38.08100
  0
LINE
  8
Kontur
 62
   7
 39
0.100
  6
CONTINUOUS
 10
163.19800
 20
38.08100
 30
 0
 11
163.18800
 21
38.26500
  0
LINE
  8
Kontur
 62
   7
 39
0.100
  6
CONTINUOUS
 10
163.18800
 20
38.26500
 30
 0
 11
163.18400
 21
38.32000
  0
LINE
  8
Kontur
 62
   7
 39
0.100
  6
CONTINUOUS
 10
163.18400
 20
38.32000
 30
 0
 11
163.17800
 21
38.37400
  0
LINE
  8
Kontur
 62
   7
 39
0.100
  6
CONTINUOUS
 10
163.17800
 20
38.37400
 30
 0
 11
163.17000
 21
38.42900
  0
LINE
  8
Kontur
 62
   7
 39
0.100
  6
CONTINUOUS
 10
163.17000
 20
38.42900
 30
 0
 11
163.14000
 21
38.61000
  0
LINE
  8
Kontur
 62
   7
 39
0.100
  6
CONTINUOUS
 10
163.14000
 20
38.61000
 30
 0
 11
163.13000
 21
38.66400
  0
LINE
  8
Kontur
 62
   7
 39
0.100
  6
CONTINUOUS
 10
163.13000
 20
38.66400
 30
 0
 11
163.11800
 21
38.71800
  0
LINE
  8
Kontur
 62
   7
 39
0.100
  6
CONTINUOUS
 10
163.11800
 20
38.71800
 30
 0
 11
163.10600
 21
38.76300
  0
LINE
  8
Kontur
 62
   7
 39
0.100
  6
CONTINUOUS
 10
163.10600
 20
38.76300
 30
 0
 11
163.05700
 21
38.94100
  0
LINE
  8
Kontur
 62
   7
 39
0.100
  6
CONTINUOUS
 10
163.05700
 20
38.94100
 30
 0
 11
163.04200
 21
38.99400
  0
LINE
  8
Kontur
 62
   7
 39
0.100
  6
CONTINUOUS
 10
163.04200
 20
38.99400
 30
 0
 11
163.02400
 21
39.04600
  0
LINE
  8
Kontur
 62
   7
 39
0.100
  6
CONTINUOUS
 10
163.02400
 20
39.04600
 30
 0
 11
163.00500
 21
39.09700
  0
LINE
  8
Kontur
 62
   7
 39
0.100
  6
CONTINUOUS
 10
163.00500
 20
39.09700
 30
 0
 11
162.93700
 21
39.26800
  0
LINE
  8
Kontur
 62
   7
 39
0.100
  6
CONTINUOUS
 10
162.93700
 20
39.26800
 30
 0
 11
162.91600
 21
39.31900
  0
LINE
  8
Kontur
 62
   7
 39
0.100
  6
CONTINUOUS
 10
162.91600
 20
39.31900
 30
 0
 11
162.89300
 21
39.36800
  0
LINE
  8
Kontur
 62
   7
 39
0.100
  6
CONTINUOUS
 10
162.89300
 20
39.36800
 30
 0
 11
162.86800
 21
39.41700
  0
LINE
  8
Kontur
 62
   7
 39
0.100
  6
CONTINUOUS
 10
162.86800
 20
39.41700
 30
 0
 11
162.78200
 21
39.57900
  0
LINE
  8
Kontur
 62
   7
 39
0.100
  6
CONTINUOUS
 10
162.78200
 20
39.57900
 30
 0
 11
162.75500
 21
39.62700
  0
LINE
  8
Kontur
 62
   7
 39
0.100
  6
CONTINUOUS
 10
162.75500
 20
39.62700
 30
 0
 11
162.72700
 21
39.67400
  0
LINE
  8
Kontur
 62
   7
 39
0.100
  6
CONTINUOUS
 10
162.72700
 20
39.67400
 30
 0
 11
162.69800
 21
39.71900
  0
LINE
  8
Kontur
 62
   7
 39
0.100
  6
CONTINUOUS
 10
162.69800
 20
39.71900
 30
 0
 11
162.59400
 21
39.87200
  0
LINE
  8
Kontur
 62
   7
 39
0.100
  6
CONTINUOUS
 10
162.59400
 20
39.87200
 30
 0
 11
162.56200
 21
39.91700
  0
LINE
  8
Kontur
 62
   7
 39
0.100
  6
CONTINUOUS
 10
162.56200
 20
39.91700
 30
 0
 11
162.52900
 21
39.96100
  0
LINE
  8
Kontur
 62
   7
 39
0.100
  6
CONTINUOUS
 10
162.52900
 20
39.96100
 30
 0
 11
162.49600
 21
40.00000
  0
LINE
  8
Kontur
 62
   7
 39
0.100
  6
CONTINUOUS
 10
162.49600
 20
40.00000
 30
 0
 11
162.37700
 21
40.14000
  0
LINE
  8
Kontur
 62
   7
 39
0.100
  6
CONTINUOUS
 10
162.37700
 20
40.14000
 30
 0
 11
162.34100
 21
40.18200
  0
LINE
  8
Kontur
 62
   7
 39
0.100
  6
CONTINUOUS
 10
162.34100
 20
40.18200
 30
 0
 11
162.30300
 21
40.22100
  0
LINE
  8
Kontur
 62
   7
 39
0.100
  6
CONTINUOUS
 10
162.30300
 20
40.22100
 30
 0
 11
162.27000
 21
40.25400
  0
LINE
  8
Kontur
 62
   7
 39
0.100
  6
CONTINUOUS
 10
162.27000
 20
40.25400
 30
 0
 11
162.13700
 21
40.38100
  0
LINE
  8
Kontur
 62
   7
 39
0.100
  6
CONTINUOUS
 10
162.13700
 20
40.38100
 30
 0
 11
162.09700
 21
40.41800
  0
LINE
  8
Kontur
 62
   7
 39
0.100
  6
CONTINUOUS
 10
162.09700
 20
40.41800
 30
 0
 11
162.05500
 21
40.45400
  0
LINE
  8
Kontur
 62
   7
 39
0.100
  6
CONTINUOUS
 10
162.05500
 20
40.45400
 30
 0
 11
162.00500
 21
40.49300
  0
LINE
  8
Kontur
 62
   7
 39
0.100
  6
CONTINUOUS
 10
162.00500
 20
40.49300
 30
 0
 11
161.85800
 21
40.60400
  0
LINE
  8
Kontur
 62
   7
 39
0.100
  6
CONTINUOUS
 10
161.85800
 20
40.60400
 30
 0
 11
161.81400
 21
40.63600
  0
LINE
  8
Kontur
 62
   7
 39
0.100
  6
CONTINUOUS
 10
161.81400
 20
40.63600
 30
 0
 11
161.76800
 21
40.66700
  0
LINE
  8
Kontur
 62
   7
 39
0.100
  6
CONTINUOUS
 10
161.76800
 20
40.66700
 30
 0
 11
161.72700
 21
40.69300
  0
LINE
  8
Kontur
 62
   7
 39
0.100
  6
CONTINUOUS
 10
161.72700
 20
40.69300
 30
 0
 11
161.56900
 21
40.78800
  0
LINE
  8
Kontur
 62
   7
 39
0.100
  6
CONTINUOUS
 10
161.56900
 20
40.78800
 30
 0
 11
161.52100
 21
40.81500
  0
LINE
  8
Kontur
 62
   7
 39
0.100
  6
CONTINUOUS
 10
161.52100
 20
40.81500
 30
 0
 11
161.47300
 21
40.84000
  0
LINE
  8
Kontur
 62
   7
 39
0.100
  6
CONTINUOUS
 10
161.47300
 20
40.84000
 30
 0
 11
161.42400
 21
40.86400
  0
LINE
  8
Kontur
 62
   7
 39
0.100
  6
CONTINUOUS
 10
161.42400
 20
40.86400
 30
 0
 11
161.25700
 21
40.94100
  0
LINE
  8
Kontur
 62
   7
 39
0.100
  6
CONTINUOUS
 10
161.25700
 20
40.94100
 30
 0
 11
161.20700
 21
40.96300
  0
LINE
  8
Kontur
 62
   7
 39
0.100
  6
CONTINUOUS
 10
161.20700
 20
40.96300
 30
 0
 11
161.15600
 21
40.98300
  0
LINE
  8
Kontur
 62
   7
 39
0.100
  6
CONTINUOUS
 10
161.15600
 20
40.98300
 30
 0
 11
161.11100
 21
41.00000
  0
LINE
  8
Kontur
 62
   7
 39
0.100
  6
CONTINUOUS
 10
161.11100
 20
41.00000
 30
 0
 11
160.93700
 21
41.05900
  0
LINE
  8
Kontur
 62
   7
 39
0.100
  6
CONTINUOUS
 10
160.93700
 20
41.05900
 30
 0
 11
160.88500
 21
41.07500
  0
LINE
  8
Kontur
 62
   7
 39
0.100
  6
CONTINUOUS
 10
160.88500
 20
41.07500
 30
 0
 11
160.83200
 21
41.09000
  0
LINE
  8
Kontur
 62
   7
 39
0.100
  6
CONTINUOUS
 10
160.83200
 20
41.09000
 30
 0
 11
160.78000
 21
41.10200
  0
LINE
  8
Kontur
 62
   7
 39
0.100
  6
CONTINUOUS
 10
160.78000
 20
41.10200
 30
 0
 11
160.60000
 21
41.14200
  0
LINE
  8
Kontur
 62
   7
 39
0.100
  6
CONTINUOUS
 10
160.60000
 20
41.14200
 30
 0
 11
160.54700
 21
41.15300
  0
LINE
  8
Kontur
 62
   7
 39
0.100
  6
CONTINUOUS
 10
160.54700
 20
41.15300
 30
 0
 11
160.49300
 21
41.16200
  0
LINE
  8
Kontur
 62
   7
 39
0.100
  6
CONTINUOUS
 10
160.49300
 20
41.16200
 30
 0
 11
160.43800
 21
41.16900
  0
LINE
  8
Kontur
 62
   7
 39
0.100
  6
CONTINUOUS
 10
160.43800
 20
41.16900
 30
 0
 11
160.25500
 21
41.18900
  0
LINE
  8
Kontur
 62
   7
 39
0.100
  6
CONTINUOUS
 10
160.25500
 20
41.18900
 30
 0
 11
160.20000
 21
41.19400
  0
LINE
  8
Kontur
 62
   7
 39
0.100
  6
CONTINUOUS
 10
160.20000
 20
41.19400
 30
 0
 11
160.14600
 21
41.19700
  0
LINE
  8
Kontur
 62
   7
 39
0.100
  6
CONTINUOUS
 10
160.14600
 20
41.19700
 30
 0
 11
160.09200
 21
41.19800
  0
LINE
  8
Kontur
 62
   7
 39
0.100
  6
CONTINUOUS
 10
160.09200
 20
41.19800
 30
 0
 11
159.90800
 21
41.19800
  0
LINE
  8
Kontur
 62
   7
 39
0.100
  6
CONTINUOUS
 10
159.90800
 20
41.19800
 30
 0
 11
159.85300
 21
41.19700
  0
LINE
  8
Kontur
 62
   7
 39
0.100
  6
CONTINUOUS
 10
159.85300
 20
41.19700
 30
 0
 11
159.79900
 21
41.19400
  0
LINE
  8
Kontur
 62
   7
 39
0.100
  6
CONTINUOUS
 10
159.79900
 20
41.19400
 30
 0
 11
159.74500
 21
41.18900
  0
LINE
  8
Kontur
 62
   7
 39
0.100
  6
CONTINUOUS
 10
159.74500
 20
41.18900
 30
 0
 11
159.56200
 21
41.16900
  0
LINE
  8
Kontur
 62
   7
 39
0.100
  6
CONTINUOUS
 10
159.56200
 20
41.16900
 30
 0
 11
159.50800
 21
41.16200
  0
LINE
  8
Kontur
 62
   7
 39
0.100
  6
CONTINUOUS
 10
159.50800
 20
41.16200
 30
 0
 11
159.45400
 21
41.15300
  0
LINE
  8
Kontur
 62
   7
 39
0.100
  6
CONTINUOUS
 10
159.45400
 20
41.15300
 30
 0
 11
159.40000
 21
41.14200
  0
LINE
  8
Kontur
 62
   7
 39
0.100
  6
CONTINUOUS
 10
159.40000
 20
41.14200
 30
 0
 11
159.22000
 21
41.10200
  0
LINE
  8
Kontur
 62
   7
 39
0.100
  6
CONTINUOUS
 10
159.22000
 20
41.10200
 30
 0
 11
159.16600
 21
41.08900
  0
LINE
  8
Kontur
 62
   7
 39
0.100
  6
CONTINUOUS
 10
159.16600
 20
41.08900
 30
 0
 11
159.11400
 21
41.07500
  0
LINE
  8
Kontur
 62
   7
 39
0.100
  6
CONTINUOUS
 10
159.11400
 20
41.07500
 30
 0
 11
159.06300
 21
41.05900
  0
LINE
  8
Kontur
 62
   7
 39
0.100
  6
CONTINUOUS
 10
159.06300
 20
41.05900
 30
 0
 11
158.88900
 21
41.00000
  0
LINE
  8
Kontur
 62
   7
 39
0.100
  6
CONTINUOUS
 10
158.88900
 20
41.00000
 30
 0
 11
158.83800
 21
40.98100
  0
LINE
  8
Kontur
 62
   7
 39
0.100
  6
CONTINUOUS
 10
158.83800
 20
40.98100
 30
 0
 11
158.78700
 21
40.96100
  0
LINE
  8
Kontur
 62
   7
 39
0.100
  6
CONTINUOUS
 10
158.78700
 20
40.96100
 30
 0
 11
158.74300
 21
40.94100
  0
LINE
  8
Kontur
 62
   7
 39
0.100
  6
CONTINUOUS
 10
158.74300
 20
40.94100
 30
 0
 11
158.57600
 21
40.86400
  0
LINE
  8
Kontur
 62
   7
 39
0.100
  6
CONTINUOUS
 10
158.57600
 20
40.86400
 30
 0
 11
158.52700
 21
40.84000
  0
LINE
  8
Kontur
 62
   7
 39
0.100
  6
CONTINUOUS
 10
158.52700
 20
40.84000
 30
 0
 11
158.47800
 21
40.81500
  0
LINE
  8
Kontur
 62
   7
 39
0.100
  6
CONTINUOUS
 10
158.47800
 20
40.81500
 30
 0
 11
158.43100
 21
40.78800
  0
LINE
  8
Kontur
 62
   7
 39
0.100
  6
CONTINUOUS
 10
158.43100
 20
40.78800
 30
 0
 11
158.27300
 21
40.69300
  0
LINE
  8
Kontur
 62
   7
 39
0.100
  6
CONTINUOUS
 10
158.27300
 20
40.69300
 30
 0
 11
158.18100
 21
40.63300
  0
LINE
  8
Kontur
 62
   7
 39
0.100
  6
CONTINUOUS
 10
158.18100
 20
40.63300
 30
 0
 11
158.14200
 21
40.60400
  0
LINE
  8
Kontur
 62
   7
 39
0.100
  6
CONTINUOUS
 10
158.14200
 20
40.60400
 30
 0
 11
157.99500
 21
40.49300
  0
LINE
  8
Kontur
 62
   7
 39
0.100
  6
CONTINUOUS
 10
157.99500
 20
40.49300
 30
 0
 11
157.95200
 21
40.45900
  0
LINE
  8
Kontur
 62
   7
 39
0.100
  6
CONTINUOUS
 10
157.95200
 20
40.45900
 30
 0
 11
157.91000
 21
40.42400
  0
LINE
  8
Kontur
 62
   7
 39
0.100
  6
CONTINUOUS
 10
157.91000
 20
40.42400
 30
 0
 11
157.86300
 21
40.38100
  0
LINE
  8
Kontur
 62
   7
 39
0.100
  6
CONTINUOUS
 10
157.86300
 20
40.38100
 30
 0
 11
157.73000
 21
40.25400
  0
LINE
  8
Kontur
 62
   7
 39
0.100
  6
CONTINUOUS
 10
157.73000
 20
40.25400
 30
 0
 11
157.69100
 21
40.21500
  0
LINE
  8
Kontur
 62
   7
 39
0.100
  6
CONTINUOUS
 10
157.69100
 20
40.21500
 30
 0
 11
157.65400
 21
40.17500
  0
LINE
  8
Kontur
 62
   7
 39
0.100
  6
CONTINUOUS
 10
157.65400
 20
40.17500
 30
 0
 11
157.62300
 21
40.14000
  0
LINE
  8
Kontur
 62
   7
 39
0.100
  6
CONTINUOUS
 10
157.62300
 20
40.14000
 30
 0
 11
157.50400
 21
40.00000
  0
LINE
  8
Kontur
 62
   7
 39
0.100
  6
CONTINUOUS
 10
157.50400
 20
40.00000
 30
 0
 11
157.46900
 21
39.95800
  0
LINE
  8
Kontur
 62
   7
 39
0.100
  6
CONTINUOUS
 10
157.46900
 20
39.95800
 30
 0
 11
157.43600
 21
39.91400
  0
LINE
  8
Kontur
 62
   7
 39
0.100
  6
CONTINUOUS
 10
157.43600
 20
39.91400
 30
 0
 11
157.40600
 21
39.87200
  0
LINE
  8
Kontur
 62
   7
 39
0.100
  6
CONTINUOUS
 10
157.40600
 20
39.87200
 30
 0
 11
157.30200
 21
39.71900
  0
LINE
  8
Kontur
 62
   7
 39
0.100
  6
CONTINUOUS
 10
157.30200
 20
39.71900
 30
 0
 11
157.27300
 21
39.67300
  0
LINE
  8
Kontur
 62
   7
 39
0.100
  6
CONTINUOUS
 10
157.27300
 20
39.67300
 30
 0
 11
157.24400
 21
39.62600
  0
LINE
  8
Kontur
 62
   7
 39
0.100
  6
CONTINUOUS
 10
157.24400
 20
39.62600
 30
 0
 11
157.21800
 21
39.57900
  0
LINE
  8
Kontur
 62
   7
 39
0.100
  6
CONTINUOUS
 10
157.21800
 20
39.57900
 30
 0
 11
157.13200
 21
39.41700
  0
LINE
  8
Kontur
 62
   7
 39
0.100
  6
CONTINUOUS
 10
157.13200
 20
39.41700
 30
 0
 11
157.10700
 21
39.36800
  0
LINE
  8
Kontur
 62
   7
 39
0.100
  6
CONTINUOUS
 10
157.10700
 20
39.36800
 30
 0
 11
157.08400
 21
39.31900
  0
LINE
  8
Kontur
 62
   7
 39
0.100
  6
CONTINUOUS
 10
157.08400
 20
39.31900
 30
 0
 11
157.06300
 21
39.26800
  0
LINE
  8
Kontur
 62
   7
 39
0.100
  6
CONTINUOUS
 10
157.06300
 20
39.26800
 30
 0
 11
156.99500
 21
39.09700
  0
LINE
  8
Kontur
 62
   7
 39
0.100
  6
CONTINUOUS
 10
156.99500
 20
39.09700
 30
 0
 11
156.97600
 21
39.04600
  0
LINE
  8
Kontur
 62
   7
 39
0.100
  6
CONTINUOUS
 10
156.97600
 20
39.04600
 30
 0
 11
156.95800
 21
38.99400
  0
LINE
  8
Kontur
 62
   7
 39
0.100
  6
CONTINUOUS
 10
156.95800
 20
38.99400
 30
 0
 11
156.94300
 21
38.94100
  0
LINE
  8
Kontur
 62
   7
 39
0.100
  6
CONTINUOUS
 10
156.94300
 20
38.94100
 30
 0
 11
156.89400
 21
38.76300
  0
LINE
  8
Kontur
 62
   7
 39
0.100
  6
CONTINUOUS
 10
156.89400
 20
38.76300
 30
 0
 11
156.88000
 21
38.71000
  0
LINE
  8
Kontur
 62
   7
 39
0.100
  6
CONTINUOUS
 10
156.88000
 20
38.71000
 30
 0
 11
156.86900
 21
38.65700
  0
LINE
  8
Kontur
 62
   7
 39
0.100
  6
CONTINUOUS
 10
156.86900
 20
38.65700
 30
 0
 11
156.86000
 21
38.61000
  0
LINE
  8
Kontur
 62
   7
 39
0.100
  6
CONTINUOUS
 10
156.86000
 20
38.61000
 30
 0
 11
156.83000
 21
38.42900
  0
LINE
  8
Kontur
 62
   7
 39
0.100
  6
CONTINUOUS
 10
156.83000
 20
38.42900
 30
 0
 11
156.82200
 21
38.37500
  0
LINE
  8
Kontur
 62
   7
 39
0.100
  6
CONTINUOUS
 10
156.82200
 20
38.37500
 30
 0
 11
156.81600
 21
38.32100
  0
LINE
  8
Kontur
 62
   7
 39
0.100
  6
CONTINUOUS
 10
156.81600
 20
38.32100
 30
 0
 11
156.81200
 21
38.26500
  0
LINE
  8
Kontur
 62
   7
 39
0.100
  6
CONTINUOUS
 10
156.81200
 20
38.26500
 30
 0
 11
156.80200
 21
38.08100
  0
LINE
  8
Kontur
 62
   7
 39
0.100
  6
CONTINUOUS
 10
156.80200
 20
38.08100
 30
 0
 11
156.80000
 21
38.02700
  0
LINE
  8
Kontur
 62
   7
 39
0.100
  6
CONTINUOUS
 10
156.80000
 20
38.02700
 30
 0
 11
156.80000
 21
37.97200
  0
LINE
  8
Kontur
 62
   7
 39
0.100
  6
CONTINUOUS
 10
156.80000
 20
37.97200
 30
 0
 11
156.80200
 21
37.91900
  0
LINE
  8
Kontur
 62
   7
 39
0.100
  6
CONTINUOUS
 10
156.80200
 20
37.91900
 30
 0
 11
156.81200
 21
37.73500
  0
LINE
  8
Kontur
 62
   7
 39
0.100
  6
CONTINUOUS
 10
156.81200
 20
37.73500
 30
 0
 11
156.81600
 21
37.68000
  0
LINE
  8
Kontur
 62
   7
 39
0.100
  6
CONTINUOUS
 10
156.81600
 20
37.68000
 30
 0
 11
156.82200
 21
37.62600
  0
LINE
  8
Kontur
 62
   7
 39
0.100
  6
CONTINUOUS
 10
156.82200
 20
37.62600
 30
 0
 11
156.83000
 21
37.57100
  0
LINE
  8
Kontur
 62
   7
 39
0.100
  6
CONTINUOUS
 10
156.83000
 20
37.57100
 30
 0
 11
156.86000
 21
37.39000
  0
LINE
  8
Kontur
 62
   7
 39
0.100
  6
CONTINUOUS
 10
156.86000
 20
37.39000
 30
 0
 11
156.87000
 21
37.33600
  0
LINE
  8
Kontur
 62
   7
 39
0.100
  6
CONTINUOUS
 10
156.87000
 20
37.33600
 30
 0
 11
156.88200
 21
37.28200
  0
LINE
  8
Kontur
 62
   7
 39
0.100
  6
CONTINUOUS
 10
156.88200
 20
37.28200
 30
 0
 11
156.89400
 21
37.23700
  0
LINE
  8
Kontur
 62
   7
 39
0.100
  6
CONTINUOUS
 10
156.89400
 20
37.23700
 30
 0
 11
156.94300
 21
37.05900
  0
LINE
  8
Kontur
 62
   7
 39
0.100
  6
CONTINUOUS
 10
156.94300
 20
37.05900
 30
 0
 11
156.95800
 21
37.00600
  0
LINE
  8
Kontur
 62
   7
 39
0.100
  6
CONTINUOUS
 10
156.95800
 20
37.00600
 30
 0
 11
156.97600
 21
36.95400
  0
LINE
  8
Kontur
 62
   7
 39
0.100
  6
CONTINUOUS
 10
156.97600
 20
36.95400
 30
 0
 11
156.99500
 21
36.90300
  0
LINE
  8
Kontur
 62
   7
 39
0.100
  6
CONTINUOUS
 10
156.99500
 20
36.90300
 30
 0
 11
157.06300
 21
36.73200
  0
LINE
  8
Kontur
 62
   7
 39
0.100
  6
CONTINUOUS
 10
157.06300
 20
36.73200
 30
 0
 11
157.08400
 21
36.68100
  0
LINE
  8
Kontur
 62
   7
 39
0.100
  6
CONTINUOUS
 10
157.08400
 20
36.68100
 30
 0
 11
157.10700
 21
36.63200
  0
LINE
  8
Kontur
 62
   7
 39
0.100
  6
CONTINUOUS
 10
157.10700
 20
36.63200
 30
 0
 11
157.13200
 21
36.58300
  0
LINE
  8
Kontur
 62
   7
 39
0.100
  6
CONTINUOUS
 10
157.13200
 20
36.58300
 30
 0
 11
157.21800
 21
36.42100
  0
LINE
  8
Kontur
 62
   7
 39
0.100
  6
CONTINUOUS
 10
157.21800
 20
36.42100
 30
 0
 11
157.24500
 21
36.37300
  0
LINE
  8
Kontur
 62
   7
 39
0.100
  6
CONTINUOUS
 10
157.24500
 20
36.37300
 30
 0
 11
157.27300
 21
36.32600
  0
LINE
  8
Kontur
 62
   7
 39
0.100
  6
CONTINUOUS
 10
157.27300
 20
36.32600
 30
 0
 11
157.30200
 21
36.28100
  0
LINE
  8
Kontur
 62
   7
 39
0.100
  6
CONTINUOUS
 10
157.30200
 20
36.28100
 30
 0
 11
157.40600
 21
36.12800
  0
LINE
  8
Kontur
 62
   7
 39
0.100
  6
CONTINUOUS
 10
157.40600
 20
36.12800
 30
 0
 11
157.43800
 21
36.08300
  0
LINE
  8
Kontur
 62
   7
 39
0.100
  6
CONTINUOUS
 10
157.43800
 20
36.08300
 30
 0
 11
157.47100
 21
36.03900
  0
LINE
  8
Kontur
 62
   7
 39
0.100
  6
CONTINUOUS
 10
157.47100
 20
36.03900
 30
 0
 11
157.50400
 21
36.00000
  0
LINE
  8
Kontur
 62
   7
 39
0.100
  6
CONTINUOUS
 10
157.50400
 20
36.00000
 30
 0
 11
157.62300
 21
35.86000
  0
LINE
  8
Kontur
 62
   7
 39
0.100
  6
CONTINUOUS
 10
157.62300
 20
35.86000
 30
 0
 11
157.65900
 21
35.81800
  0
LINE
  8
Kontur
 62
   7
 39
0.100
  6
CONTINUOUS
 10
157.65900
 20
35.81800
 30
 0
 11
157.69700
 21
35.77900
  0
LINE
  8
Kontur
 62
   7
 39
0.100
  6
CONTINUOUS
 10
157.69700
 20
35.77900
 30
 0
 11
157.73000
 21
35.74600
  0
LINE
  8
Kontur
 62
   7
 39
0.100
  6
CONTINUOUS
 10
157.73000
 20
35.74600
 30
 0
 11
157.86300
 21
35.61900
  0
LINE
  8
Kontur
 62
   7
 39
0.100
  6
CONTINUOUS
 10
157.86300
 20
35.61900
 30
 0
 11
157.90300
 21
35.58200
  0
LINE
  8
Kontur
 62
   7
 39
0.100
  6
CONTINUOUS
 10
157.90300
 20
35.58200
 30
 0
 11
157.94500
 21
35.54600
  0
LINE
  8
Kontur
 62
   7
 39
0.100
  6
CONTINUOUS
 10
157.94500
 20
35.54600
 30
 0
 11
157.99500
 21
35.50700
  0
LINE
  8
Kontur
 62
   7
 39
0.100
  6
CONTINUOUS
 10
157.99500
 20
35.50700
 30
 0
 11
158.14200
 21
35.39600
  0
LINE
  8
Kontur
 62
   7
 39
0.100
  6
CONTINUOUS
 10
158.14200
 20
35.39600
 30
 0
 11
158.18600
 21
35.36400
  0
LINE
  8
Kontur
 62
   7
 39
0.100
  6
CONTINUOUS
 10
158.18600
 20
35.36400
 30
 0
 11
158.23200
 21
35.33300
  0
LINE
  8
Kontur
 62
   7
 39
0.100
  6
CONTINUOUS
 10
158.23200
 20
35.33300
 30
 0
 11
158.27300
 21
35.30700
  0
LINE
  8
Kontur
 62
   7
 39
0.100
  6
CONTINUOUS
 10
158.27300
 20
35.30700
 30
 0
 11
158.43100
 21
35.21200
  0
LINE
  8
Kontur
 62
   7
 39
0.100
  6
CONTINUOUS
 10
158.43100
 20
35.21200
 30
 0
 11
158.47900
 21
35.18500
  0
LINE
  8
Kontur
 62
   7
 39
0.100
  6
CONTINUOUS
 10
158.47900
 20
35.18500
 30
 0
 11
158.52700
 21
35.16000
  0
LINE
  8
Kontur
 62
   7
 39
0.100
  6
CONTINUOUS
 10
158.52700
 20
35.16000
 30
 0
 11
158.57600
 21
35.13600
  0
LINE
  8
Kontur
 62
   7
 39
0.100
  6
CONTINUOUS
 10
158.57600
 20
35.13600
 30
 0
 11
158.74300
 21
35.05900
  0
LINE
  8
Kontur
 62
   7
 39
0.100
  6
CONTINUOUS
 10
158.74300
 20
35.05900
 30
 0
 11
158.79300
 21
35.03700
  0
LINE
  8
Kontur
 62
   7
 39
0.100
  6
CONTINUOUS
 10
158.79300
 20
35.03700
 30
 0
 11
158.84400
 21
35.01700
  0
LINE
  8
Kontur
 62
   7
 39
0.100
  6
CONTINUOUS
 10
158.84400
 20
35.01700
 30
 0
 11
158.88900
 21
35.00000
  0
LINE
  8
Kontur
 62
   7
 39
0.100
  6
CONTINUOUS
 10
158.88900
 20
35.00000
 30
 0
 11
159.06300
 21
34.94100
  0
LINE
  8
Kontur
 62
   7
 39
0.100
  6
CONTINUOUS
 10
159.06300
 20
34.94100
 30
 0
 11
159.11500
 21
34.92500
  0
LINE
  8
Kontur
 62
   7
 39
0.100
  6
CONTINUOUS
 10
159.11500
 20
34.92500
 30
 0
 11
159.16800
 21
34.91000
  0
LINE
  8
Kontur
 62
   7
 39
0.100
  6
CONTINUOUS
 10
159.16800
 20
34.91000
 30
 0
 11
159.22000
 21
34.89800
  0
LINE
  8
Kontur
 62
   7
 39
0.100
  6
CONTINUOUS
 10
159.22000
 20
34.89800
 30
 0
 11
159.40000
 21
34.85800
  0
LINE
  8
Kontur
 62
   7
 39
0.100
  6
CONTINUOUS
 10
159.40000
 20
34.85800
 30
 0
 11
159.45300
 21
34.84700
  0
LINE
  8
Kontur
 62
   7
 39
0.100
  6
CONTINUOUS
 10
159.45300
 20
34.84700
 30
 0
 11
159.50700
 21
34.83800
  0
LINE
  8
Kontur
 62
   7
 39
0.100
  6
CONTINUOUS
 10
159.50700
 20
34.83800
 30
 0
 11
159.56200
 21
34.83100
  0
LINE
  8
Kontur
 62
   7
 39
0.100
  6
CONTINUOUS
 10
159.56200
 20
34.83100
 30
 0
 11
159.74500
 21
34.81100
  0
LINE
  8
Kontur
 62
   7
 39
0.100
  6
CONTINUOUS
 10
159.74500
 20
34.81100
 30
 0
 11
159.80000
 21
34.80600
  0
LINE
  8
Kontur
 62
   7
 39
0.100
  6
CONTINUOUS
 10
159.80000
 20
34.80600
 30
 0
 11
159.85400
 21
34.80300
  0
LINE
  8
Kontur
 62
   7
 39
0.100
  6
CONTINUOUS
 10
159.85400
 20
34.80300
 30
 0
 11
159.90800
 21
34.80200
  0
LINE
  8
Kontur
 62
   7
 39
0.100
  6
CONTINUOUS
 10
159.90800
 20
34.80200
 30
 0
 11
160.09200
 21
34.80200
  0
LINE
  8
Kontur
 62
   7
 39
0.100
  6
CONTINUOUS
 10
160.09200
 20
34.80200
 30
 0
 11
160.14700
 21
34.80300
  0
CIRCLE
  8
Kontur
 62
   7
 39
0.100
  6
CONTINUOUS
 10
160.00000
 20
38.00000
 30
 0
 40
1.70000
  0
LINE
  8
Kontur
 62
   7
 39
0.100
  6
CONTINUOUS
 10
160.14700
 20
34.80300
 30
 0
 11
160.20100
 21
34.80600
  0
LINE
  8
Kontur
 62
   7
 39
0.100
  6
CONTINUOUS
 10
160.20100
 20
34.80600
 30
 0
 11
160.25500
 21
34.81100
  0
LINE
  8
Kontur
 62
   7
 39
0.100
  6
CONTINUOUS
 10
160.25500
 20
34.81100
 30
 0
 11
160.43800
 21
34.83100
  0
LINE
  8
Kontur
 62
   7
 39
0.100
  6
CONTINUOUS
 10
160.43800
 20
34.83100
 30
 0
 11
160.49200
 21
34.83800
  0
LINE
  8
Kontur
 62
   7
 39
0.100
  6
CONTINUOUS
 10
160.49200
 20
34.83800
 30
 0
 11
160.54600
 21
34.84700
  0
LINE
  8
Kontur
 62
   7
 39
0.100
  6
CONTINUOUS
 10
160.54600
 20
34.84700
 30
 0
 11
160.60000
 21
34.85800
  0
LINE
  8
Kontur
 62
   7
 39
0.100
  6
CONTINUOUS
 10
160.60000
 20
34.85800
 30
 0
 11
160.78000
 21
34.89800
  0
LINE
  8
Kontur
 62
   7
 39
0.100
  6
CONTINUOUS
 10
160.78000
 20
34.89800
 30
 0
 11
160.83400
 21
34.91100
  0
LINE
  8
Kontur
 62
   7
 39
0.100
  6
CONTINUOUS
 10
160.83400
 20
34.91100
 30
 0
 11
160.88600
 21
34.92500
  0
LINE
  8
Kontur
 62
   7
 39
0.100
  6
CONTINUOUS
 10
160.88600
 20
34.92500
 30
 0
 11
160.93700
 21
34.94100
  0
LINE
  8
Kontur
 62
   7
 39
0.100
  6
CONTINUOUS
 10
160.93700
 20
34.94100
 30
 0
 11
161.11100
 21
35.00000
  0
LINE
  8
Kontur
 62
   7
 39
0.100
  6
CONTINUOUS
 10
161.11100
 20
35.00000
 30
 0
 11
161.16200
 21
35.01900
  0
LINE
  8
Kontur
 62
   7
 39
0.100
  6
CONTINUOUS
 10
161.16200
 20
35.01900
 30
 0
 11
161.21300
 21
35.03900
  0
LINE
  8
Kontur
 62
   7
 39
0.100
  6
CONTINUOUS
 10
161.21300
 20
35.03900
 30
 0
 11
161.25700
 21
35.05900
  0
LINE
  8
Kontur
 62
   7
 39
0.100
  6
CONTINUOUS
 10
161.25700
 20
35.05900
 30
 0
 11
161.42400
 21
35.13600
  0
LINE
  8
Kontur
 62
   7
 39
0.100
  6
CONTINUOUS
 10
161.42400
 20
35.13600
 30
 0
 11
161.47300
 21
35.16000
  0
LINE
  8
Kontur
 62
   7
 39
0.100
  6
CONTINUOUS
 10
161.47300
 20
35.16000
 30
 0
 11
161.52200
 21
35.18500
  0
LINE
  8
Kontur
 62
   7
 39
0.100
  6
CONTINUOUS
 10
161.52200
 20
35.18500
 30
 0
 11
161.56900
 21
35.21200
  0
LINE
  8
Kontur
 62
   7
 39
0.100
  6
CONTINUOUS
 10
161.56900
 20
35.21200
 30
 0
 11
161.72700
 21
35.30700
  0
LINE
  8
Kontur
 62
   7
 39
0.100
  6
CONTINUOUS
 10
161.72700
 20
35.30700
 30
 0
 11
161.81900
 21
35.36700
  0
LINE
  8
Kontur
 62
   7
 39
0.100
  6
CONTINUOUS
 10
161.81900
 20
35.36700
 30
 0
 11
161.85800
 21
35.39600
  0
LINE
  8
Kontur
 62
   7
 39
0.100
  6
CONTINUOUS
 10
161.85800
 20
35.39600
 30
 0
 11
162.00500
 21
35.50700
  0
LINE
  8
Kontur
 62
   7
 39
0.100
  6
CONTINUOUS
 10
162.00500
 20
35.50700
 30
 0
 11
162.04800
 21
35.54100
  0
LINE
  8
Kontur
 62
   7
 39
0.100
  6
CONTINUOUS
 10
162.04800
 20
35.54100
 30
 0
 11
162.09000
 21
35.57600
  0
LINE
  8
Kontur
 62
   7
 39
0.100
  6
CONTINUOUS
 10
162.09000
 20
35.57600
 30
 0
 11
162.13700
 21
35.61900
  0
LINE
  8
Kontur
 62
   7
 39
0.100
  6
CONTINUOUS
 10
162.13700
 20
35.61900
 30
 0
 11
162.27000
 21
35.74600
  0
LINE
  8
Kontur
 62
   7
 39
0.100
  6
CONTINUOUS
 10
162.27000
 20
35.74600
 30
 0
 11
162.30900
 21
35.78500
  0
LINE
  8
Kontur
 62
   7
 39
0.100
  6
CONTINUOUS
 10
162.30900
 20
35.78500
 30
 0
 11
162.34600
 21
35.82500
  0
LINE
  8
Kontur
 62
   7
 39
0.100
  6
CONTINUOUS
 10
162.34600
 20
35.82500
 30
 0
 11
162.37700
 21
35.86000
  0
LINE
  8
Kontur
 62
   7
 39
0.100
  6
CONTINUOUS
 10
162.37700
 20
35.86000
 30
 0
 11
162.49600
 21
36.00000
  0
LINE
  8
Kontur
 62
   7
 39
0.100
  6
CONTINUOUS
 10
162.49600
 20
36.00000
 30
 0
 11
162.53100
 21
36.04200
  0
LINE
  8
Kontur
 62
   7
 39
0.100
  6
CONTINUOUS
 10
162.53100
 20
36.04200
 30
 0
 11
162.56400
 21
36.08600
  0
LINE
  8
Kontur
 62
   7
 39
0.100
  6
CONTINUOUS
 10
162.56400
 20
36.08600
 30
 0
 11
162.59400
 21
36.12800
  0
LINE
  8
Kontur
 62
   7
 39
0.100
  6
CONTINUOUS
 10
162.59400
 20
36.12800
 30
 0
 11
162.69800
 21
36.28100
  0
LINE
  8
Kontur
 62
   7
 39
0.100
  6
CONTINUOUS
 10
162.69800
 20
36.28100
 30
 0
 11
162.72700
 21
36.32700
  0
LINE
  8
Kontur
 62
   7
 39
0.100
  6
CONTINUOUS
 10
162.72700
 20
36.32700
 30
 0
 11
162.75600
 21
36.37400
  0
LINE
  8
Kontur
 62
   7
 39
0.100
  6
CONTINUOUS
 10
162.75600
 20
36.37400
 30
 0
 11
162.78200
 21
36.42100
  0
LINE
  8
Kontur
 62
   7
 39
0.100
  6
CONTINUOUS
 10
162.78200
 20
36.42100
 30
 0
 11
162.86800
 21
36.58300
  0
LINE
  8
Kontur
 62
   7
 39
0.100
  6
CONTINUOUS
 10
162.86800
 20
36.58300
 30
 0
 11
162.89300
 21
36.63200
  0
LINE
  8
Kontur
 62
   7
 39
0.100
  6
CONTINUOUS
 10
162.89300
 20
36.63200
 30
 0
 11
162.91600
 21
36.68100
  0
LINE
  8
Kontur
 62
   7
 39
0.100
  6
CONTINUOUS
 10
162.91600
 20
36.68100
 30
 0
 11
162.93700
 21
36.73200
  0
LINE
  8
Kontur
 62
   7
 39
0.100
  6
CONTINUOUS
 10
162.93700
 20
36.73200
 30
 0
 11
163.00500
 21
36.90300
  0
LINE
  8
Kontur
 62
   7
 39
0.100
  6
CONTINUOUS
 10
163.00500
 20
36.90300
 30
 0
 11
163.02400
 21
36.95400
  0
LINE
  8
Kontur
 62
   7
 39
0.100
  6
CONTINUOUS
 10
163.02400
 20
36.95400
 30
 0
 11
163.04200
 21
37.00600
  0
LINE
  8
Kontur
 62
   7
 39
0.100
  6
CONTINUOUS
 10
163.04200
 20
37.00600
 30
 0
 11
163.05700
 21
37.05900
  0
LINE
  8
Kontur
 62
   7
 39
0.100
  6
CONTINUOUS
 10
163.05700
 20
37.05900
 30
 0
 11
163.10600
 21
37.23700
  0
LINE
  8
Kontur
 62
   7
 39
0.100
  6
CONTINUOUS
 10
163.10600
 20
37.23700
 30
 0
 11
163.12000
 21
37.29000
  0
LINE
  8
Kontur
 62
   7
 39
0.100
  6
CONTINUOUS
 10
163.12000
 20
37.29000
 30
 0
 11
163.13100
 21
37.34300
  0
LINE
  8
Kontur
 62
   7
 39
0.100
  6
CONTINUOUS
 10
163.13100
 20
37.34300
 30
 0
 11
163.14000
 21
37.39000
  0
LINE
  8
Kontur
 62
   7
 39
0.100
  6
CONTINUOUS
 10
163.14000
 20
37.39000
 30
 0
 11
163.17000
 21
37.57100
  0
LINE
  8
Kontur
 62
   7
 39
0.100
  6
CONTINUOUS
 10
163.17000
 20
37.57100
 30
 0
 11
163.17800
 21
37.62500
  0
LINE
  8
Kontur
 62
   7
 39
0.100
  6
CONTINUOUS
 10
163.17800
 20
37.62500
 30
 0
 11
163.18400
 21
37.67900
  0
LINE
  8
Kontur
 62
   7
 39
0.100
  6
CONTINUOUS
 10
163.18400
 20
37.67900
 30
 0
 11
163.18800
 21
37.73500
  0
LINE
  8
Kontur
 62
   7
 39
0.100
  6
CONTINUOUS
 10
163.18800
 20
37.73500
 30
 0
 11
163.19800
 21
37.91900
  0
LINE
  8
Kontur
 62
   7
 39
0.100
  6
CONTINUOUS
 10
163.19800
 20
37.91900
 30
 0
 11
163.20000
 21
37.97300
  0
LINE
  8
Kontur
 62
   7
 39
0.100
  6
CONTINUOUS
 10
163.20000
 20
37.97300
 30
 0
 11
163.20000
 21
38.02800
  0
LINE
  8
Kontur
 62
   7
 39
0.100
  6
CONTINUOUS
 10
163.20000
 20
38.02800
 30
 0
 11
163.19800
 21
38.08100
  0
LINE
  8
Kontur
 62
   7
 39
0.100
  6
CONTINUOUS
 10
163.19800
 20
38.08100
 30
 0
 11
163.18800
 21
38.26500
  0
LINE
  8
Kontur
 62
   7
 39
0.100
  6
CONTINUOUS
 10
163.18800
 20
38.26500
 30
 0
 11
163.18400
 21
38.32000
  0
LINE
  8
Kontur
 62
   7
 39
0.100
  6
CONTINUOUS
 10
163.18400
 20
38.32000
 30
 0
 11
163.17800
 21
38.37400
  0
LINE
  8
Kontur
 62
   7
 39
0.100
  6
CONTINUOUS
 10
163.17800
 20
38.37400
 30
 0
 11
163.17000
 21
38.42900
  0
LINE
  8
Kontur
 62
   7
 39
0.100
  6
CONTINUOUS
 10
163.17000
 20
38.42900
 30
 0
 11
163.14000
 21
38.61000
  0
LINE
  8
Kontur
 62
   7
 39
0.100
  6
CONTINUOUS
 10
163.14000
 20
38.61000
 30
 0
 11
163.13000
 21
38.66400
  0
LINE
  8
Kontur
 62
   7
 39
0.100
  6
CONTINUOUS
 10
163.13000
 20
38.66400
 30
 0
 11
163.11800
 21
38.71800
  0
LINE
  8
Kontur
 62
   7
 39
0.100
  6
CONTINUOUS
 10
163.11800
 20
38.71800
 30
 0
 11
163.10600
 21
38.76300
  0
LINE
  8
Kontur
 62
   7
 39
0.100
  6
CONTINUOUS
 10
163.10600
 20
38.76300
 30
 0
 11
163.05700
 21
38.94100
  0
LINE
  8
Kontur
 62
   7
 39
0.100
  6
CONTINUOUS
 10
163.05700
 20
38.94100
 30
 0
 11
163.04200
 21
38.99400
  0
LINE
  8
Kontur
 62
   7
 39
0.100
  6
CONTINUOUS
 10
163.04200
 20
38.99400
 30
 0
 11
163.02400
 21
39.04600
  0
LINE
  8
Kontur
 62
   7
 39
0.100
  6
CONTINUOUS
 10
163.02400
 20
39.04600
 30
 0
 11
163.00500
 21
39.09700
  0
LINE
  8
Kontur
 62
   7
 39
0.100
  6
CONTINUOUS
 10
163.00500
 20
39.09700
 30
 0
 11
162.93700
 21
39.26800
  0
LINE
  8
Kontur
 62
   7
 39
0.100
  6
CONTINUOUS
 10
162.93700
 20
39.26800
 30
 0
 11
162.91600
 21
39.31900
  0
LINE
  8
Kontur
 62
   7
 39
0.100
  6
CONTINUOUS
 10
162.91600
 20
39.31900
 30
 0
 11
162.89300
 21
39.36800
  0
LINE
  8
Kontur
 62
   7
 39
0.100
  6
CONTINUOUS
 10
162.89300
 20
39.36800
 30
 0
 11
162.86800
 21
39.41700
  0
LINE
  8
Kontur
 62
   7
 39
0.100
  6
CONTINUOUS
 10
162.86800
 20
39.41700
 30
 0
 11
162.78200
 21
39.57900
  0
LINE
  8
Kontur
 62
   7
 39
0.100
  6
CONTINUOUS
 10
162.78200
 20
39.57900
 30
 0
 11
162.75500
 21
39.62700
  0
LINE
  8
Kontur
 62
   7
 39
0.100
  6
CONTINUOUS
 10
162.75500
 20
39.62700
 30
 0
 11
162.72700
 21
39.67400
  0
LINE
  8
Kontur
 62
   7
 39
0.100
  6
CONTINUOUS
 10
162.72700
 20
39.67400
 30
 0
 11
162.69800
 21
39.71900
  0
LINE
  8
Kontur
 62
   7
 39
0.100
  6
CONTINUOUS
 10
162.69800
 20
39.71900
 30
 0
 11
162.59400
 21
39.87200
  0
LINE
  8
Kontur
 62
   7
 39
0.100
  6
CONTINUOUS
 10
162.59400
 20
39.87200
 30
 0
 11
162.56200
 21
39.91700
  0
LINE
  8
Kontur
 62
   7
 39
0.100
  6
CONTINUOUS
 10
162.56200
 20
39.91700
 30
 0
 11
162.52900
 21
39.96100
  0
LINE
  8
Kontur
 62
   7
 39
0.100
  6
CONTINUOUS
 10
162.52900
 20
39.96100
 30
 0
 11
162.49600
 21
40.00000
  0
LINE
  8
Kontur
 62
   7
 39
0.100
  6
CONTINUOUS
 10
162.49600
 20
40.00000
 30
 0
 11
162.37700
 21
40.14000
  0
LINE
  8
Kontur
 62
   7
 39
0.100
  6
CONTINUOUS
 10
162.37700
 20
40.14000
 30
 0
 11
162.34100
 21
40.18200
  0
LINE
  8
Kontur
 62
   7
 39
0.100
  6
CONTINUOUS
 10
162.34100
 20
40.18200
 30
 0
 11
162.30300
 21
40.22100
  0
LINE
  8
Kontur
 62
   7
 39
0.100
  6
CONTINUOUS
 10
162.30300
 20
40.22100
 30
 0
 11
162.27000
 21
40.25400
  0
LINE
  8
Kontur
 62
   7
 39
0.100
  6
CONTINUOUS
 10
162.27000
 20
40.25400
 30
 0
 11
162.13700
 21
40.38100
  0
LINE
  8
Kontur
 62
   7
 39
0.100
  6
CONTINUOUS
 10
162.13700
 20
40.38100
 30
 0
 11
162.09700
 21
40.41800
  0
LINE
  8
Kontur
 62
   7
 39
0.100
  6
CONTINUOUS
 10
162.09700
 20
40.41800
 30
 0
 11
162.05500
 21
40.45400
  0
LINE
  8
Kontur
 62
   7
 39
0.100
  6
CONTINUOUS
 10
162.05500
 20
40.45400
 30
 0
 11
162.00500
 21
40.49300
  0
LINE
  8
Kontur
 62
   7
 39
0.100
  6
CONTINUOUS
 10
162.00500
 20
40.49300
 30
 0
 11
161.85800
 21
40.60400
  0
LINE
  8
Kontur
 62
   7
 39
0.100
  6
CONTINUOUS
 10
161.85800
 20
40.60400
 30
 0
 11
161.81400
 21
40.63600
  0
LINE
  8
Kontur
 62
   7
 39
0.100
  6
CONTINUOUS
 10
161.81400
 20
40.63600
 30
 0
 11
161.76800
 21
40.66700
  0
LINE
  8
Kontur
 62
   7
 39
0.100
  6
CONTINUOUS
 10
161.76800
 20
40.66700
 30
 0
 11
161.72700
 21
40.69300
  0
LINE
  8
Kontur
 62
   7
 39
0.100
  6
CONTINUOUS
 10
161.72700
 20
40.69300
 30
 0
 11
161.56900
 21
40.78800
  0
LINE
  8
Kontur
 62
   7
 39
0.100
  6
CONTINUOUS
 10
161.56900
 20
40.78800
 30
 0
 11
161.52100
 21
40.81500
  0
LINE
  8
Kontur
 62
   7
 39
0.100
  6
CONTINUOUS
 10
161.52100
 20
40.81500
 30
 0
 11
161.47300
 21
40.84000
  0
LINE
  8
Kontur
 62
   7
 39
0.100
  6
CONTINUOUS
 10
161.47300
 20
40.84000
 30
 0
 11
161.42400
 21
40.86400
  0
LINE
  8
Kontur
 62
   7
 39
0.100
  6
CONTINUOUS
 10
161.42400
 20
40.86400
 30
 0
 11
161.25700
 21
40.94100
  0
LINE
  8
Kontur
 62
   7
 39
0.100
  6
CONTINUOUS
 10
161.25700
 20
40.94100
 30
 0
 11
161.20700
 21
40.96300
  0
LINE
  8
Kontur
 62
   7
 39
0.100
  6
CONTINUOUS
 10
161.20700
 20
40.96300
 30
 0
 11
161.15600
 21
40.98300
  0
LINE
  8
Kontur
 62
   7
 39
0.100
  6
CONTINUOUS
 10
161.15600
 20
40.98300
 30
 0
 11
161.11100
 21
41.00000
  0
LINE
  8
Kontur
 62
   7
 39
0.100
  6
CONTINUOUS
 10
161.11100
 20
41.00000
 30
 0
 11
160.93700
 21
41.05900
  0
LINE
  8
Kontur
 62
   7
 39
0.100
  6
CONTINUOUS
 10
160.93700
 20
41.05900
 30
 0
 11
160.88500
 21
41.07500
  0
LINE
  8
Kontur
 62
   7
 39
0.100
  6
CONTINUOUS
 10
160.88500
 20
41.07500
 30
 0
 11
160.83200
 21
41.09000
  0
LINE
  8
Kontur
 62
   7
 39
0.100
  6
CONTINUOUS
 10
160.83200
 20
41.09000
 30
 0
 11
160.78000
 21
41.10200
  0
LINE
  8
Kontur
 62
   7
 39
0.100
  6
CONTINUOUS
 10
160.78000
 20
41.10200
 30
 0
 11
160.60000
 21
41.14200
  0
LINE
  8
Kontur
 62
   7
 39
0.100
  6
CONTINUOUS
 10
160.60000
 20
41.14200
 30
 0
 11
160.54700
 21
41.15300
  0
LINE
  8
Kontur
 62
   7
 39
0.100
  6
CONTINUOUS
 10
160.54700
 20
41.15300
 30
 0
 11
160.49300
 21
41.16200
  0
LINE
  8
Kontur
 62
   7
 39
0.100
  6
CONTINUOUS
 10
160.49300
 20
41.16200
 30
 0
 11
160.43800
 21
41.16900
  0
LINE
  8
Kontur
 62
   7
 39
0.100
  6
CONTINUOUS
 10
160.43800
 20
41.16900
 30
 0
 11
160.25500
 21
41.18900
  0
LINE
  8
Kontur
 62
   7
 39
0.100
  6
CONTINUOUS
 10
160.25500
 20
41.18900
 30
 0
 11
160.20000
 21
41.19400
  0
LINE
  8
Kontur
 62
   7
 39
0.100
  6
CONTINUOUS
 10
160.20000
 20
41.19400
 30
 0
 11
160.14600
 21
41.19700
  0
LINE
  8
Kontur
 62
   7
 39
0.100
  6
CONTINUOUS
 10
160.14600
 20
41.19700
 30
 0
 11
160.09200
 21
41.19800
  0
LINE
  8
Kontur
 62
   7
 39
0.100
  6
CONTINUOUS
 10
160.09200
 20
41.19800
 30
 0
 11
159.90800
 21
41.19800
  0
LINE
  8
Kontur
 62
   7
 39
0.100
  6
CONTINUOUS
 10
159.90800
 20
41.19800
 30
 0
 11
159.85300
 21
41.19700
  0
LINE
  8
Kontur
 62
   7
 39
0.100
  6
CONTINUOUS
 10
159.85300
 20
41.19700
 30
 0
 11
159.79900
 21
41.19400
  0
LINE
  8
Kontur
 62
   7
 39
0.100
  6
CONTINUOUS
 10
159.79900
 20
41.19400
 30
 0
 11
159.74500
 21
41.18900
  0
LINE
  8
Kontur
 62
   7
 39
0.100
  6
CONTINUOUS
 10
159.74500
 20
41.18900
 30
 0
 11
159.56200
 21
41.16900
  0
LINE
  8
Kontur
 62
   7
 39
0.100
  6
CONTINUOUS
 10
159.56200
 20
41.16900
 30
 0
 11
159.50800
 21
41.16200
  0
LINE
  8
Kontur
 62
   7
 39
0.100
  6
CONTINUOUS
 10
159.50800
 20
41.16200
 30
 0
 11
159.45400
 21
41.15300
  0
LINE
  8
Kontur
 62
   7
 39
0.100
  6
CONTINUOUS
 10
159.45400
 20
41.15300
 30
 0
 11
159.40000
 21
41.14200
  0
LINE
  8
Kontur
 62
   7
 39
0.100
  6
CONTINUOUS
 10
159.40000
 20
41.14200
 30
 0
 11
159.22000
 21
41.10200
  0
LINE
  8
Kontur
 62
   7
 39
0.100
  6
CONTINUOUS
 10
159.22000
 20
41.10200
 30
 0
 11
159.16600
 21
41.08900
  0
LINE
  8
Kontur
 62
   7
 39
0.100
  6
CONTINUOUS
 10
159.16600
 20
41.08900
 30
 0
 11
159.11400
 21
41.07500
  0
LINE
  8
Kontur
 62
   7
 39
0.100
  6
CONTINUOUS
 10
159.11400
 20
41.07500
 30
 0
 11
159.06300
 21
41.05900
  0
LINE
  8
Kontur
 62
   7
 39
0.100
  6
CONTINUOUS
 10
159.06300
 20
41.05900
 30
 0
 11
158.88900
 21
41.00000
  0
LINE
  8
Kontur
 62
   7
 39
0.100
  6
CONTINUOUS
 10
158.88900
 20
41.00000
 30
 0
 11
158.83800
 21
40.98100
  0
LINE
  8
Kontur
 62
   7
 39
0.100
  6
CONTINUOUS
 10
158.83800
 20
40.98100
 30
 0
 11
158.78700
 21
40.96100
  0
LINE
  8
Kontur
 62
   7
 39
0.100
  6
CONTINUOUS
 10
158.78700
 20
40.96100
 30
 0
 11
158.74300
 21
40.94100
  0
LINE
  8
Kontur
 62
   7
 39
0.100
  6
CONTINUOUS
 10
158.74300
 20
40.94100
 30
 0
 11
158.57600
 21
40.86400
  0
LINE
  8
Kontur
 62
   7
 39
0.100
  6
CONTINUOUS
 10
158.57600
 20
40.86400
 30
 0
 11
158.52700
 21
40.84000
  0
LINE
  8
Kontur
 62
   7
 39
0.100
  6
CONTINUOUS
 10
158.52700
 20
40.84000
 30
 0
 11
158.47800
 21
40.81500
  0
LINE
  8
Kontur
 62
   7
 39
0.100
  6
CONTINUOUS
 10
158.47800
 20
40.81500
 30
 0
 11
158.43100
 21
40.78800
  0
LINE
  8
Kontur
 62
   7
 39
0.100
  6
CONTINUOUS
 10
158.43100
 20
40.78800
 30
 0
 11
158.27300
 21
40.69300
  0
LINE
  8
Kontur
 62
   7
 39
0.100
  6
CONTINUOUS
 10
158.27300
 20
40.69300
 30
 0
 11
158.18100
 21
40.63300
  0
LINE
  8
Kontur
 62
   7
 39
0.100
  6
CONTINUOUS
 10
158.18100
 20
40.63300
 30
 0
 11
158.14200
 21
40.60400
  0
LINE
  8
Kontur
 62
   7
 39
0.100
  6
CONTINUOUS
 10
158.14200
 20
40.60400
 30
 0
 11
157.99500
 21
40.49300
  0
LINE
  8
Kontur
 62
   7
 39
0.100
  6
CONTINUOUS
 10
157.99500
 20
40.49300
 30
 0
 11
157.95200
 21
40.45900
  0
LINE
  8
Kontur
 62
   7
 39
0.100
  6
CONTINUOUS
 10
157.95200
 20
40.45900
 30
 0
 11
157.91000
 21
40.42400
  0
LINE
  8
Kontur
 62
   7
 39
0.100
  6
CONTINUOUS
 10
157.91000
 20
40.42400
 30
 0
 11
157.86300
 21
40.38100
  0
LINE
  8
Kontur
 62
   7
 39
0.100
  6
CONTINUOUS
 10
157.86300
 20
40.38100
 30
 0
 11
157.73000
 21
40.25400
  0
LINE
  8
Kontur
 62
   7
 39
0.100
  6
CONTINUOUS
 10
157.73000
 20
40.25400
 30
 0
 11
157.69100
 21
40.21500
  0
LINE
  8
Kontur
 62
   7
 39
0.100
  6
CONTINUOUS
 10
157.69100
 20
40.21500
 30
 0
 11
157.65400
 21
40.17500
  0
LINE
  8
Kontur
 62
   7
 39
0.100
  6
CONTINUOUS
 10
157.65400
 20
40.17500
 30
 0
 11
157.62300
 21
40.14000
  0
LINE
  8
Kontur
 62
   7
 39
0.100
  6
CONTINUOUS
 10
157.62300
 20
40.14000
 30
 0
 11
157.50400
 21
40.00000
  0
LINE
  8
Kontur
 62
   7
 39
0.100
  6
CONTINUOUS
 10
157.50400
 20
40.00000
 30
 0
 11
157.46900
 21
39.95800
  0
LINE
  8
Kontur
 62
   7
 39
0.100
  6
CONTINUOUS
 10
157.46900
 20
39.95800
 30
 0
 11
157.43600
 21
39.91400
  0
LINE
  8
Kontur
 62
   7
 39
0.100
  6
CONTINUOUS
 10
157.43600
 20
39.91400
 30
 0
 11
157.40600
 21
39.87200
  0
LINE
  8
Kontur
 62
   7
 39
0.100
  6
CONTINUOUS
 10
157.40600
 20
39.87200
 30
 0
 11
157.30200
 21
39.71900
  0
LINE
  8
Kontur
 62
   7
 39
0.100
  6
CONTINUOUS
 10
157.30200
 20
39.71900
 30
 0
 11
157.27300
 21
39.67300
  0
LINE
  8
Kontur
 62
   7
 39
0.100
  6
CONTINUOUS
 10
157.27300
 20
39.67300
 30
 0
 11
157.24400
 21
39.62600
  0
LINE
  8
Kontur
 62
   7
 39
0.100
  6
CONTINUOUS
 10
157.24400
 20
39.62600
 30
 0
 11
157.21800
 21
39.57900
  0
LINE
  8
Kontur
 62
   7
 39
0.100
  6
CONTINUOUS
 10
157.21800
 20
39.57900
 30
 0
 11
157.13200
 21
39.41700
  0
LINE
  8
Kontur
 62
   7
 39
0.100
  6
CONTINUOUS
 10
157.13200
 20
39.41700
 30
 0
 11
157.10700
 21
39.36800
  0
LINE
  8
Kontur
 62
   7
 39
0.100
  6
CONTINUOUS
 10
157.10700
 20
39.36800
 30
 0
 11
157.08400
 21
39.31900
  0
LINE
  8
Kontur
 62
   7
 39
0.100
  6
CONTINUOUS
 10
157.08400
 20
39.31900
 30
 0
 11
157.06300
 21
39.26800
  0
LINE
  8
Kontur
 62
   7
 39
0.100
  6
CONTINUOUS
 10
157.06300
 20
39.26800
 30
 0
 11
156.99500
 21
39.09700
  0
LINE
  8
Kontur
 62
   7
 39
0.100
  6
CONTINUOUS
 10
156.99500
 20
39.09700
 30
 0
 11
156.97600
 21
39.04600
  0
LINE
  8
Kontur
 62
   7
 39
0.100
  6
CONTINUOUS
 10
156.97600
 20
39.04600
 30
 0
 11
156.95800
 21
38.99400
  0
LINE
  8
Kontur
 62
   7
 39
0.100
  6
CONTINUOUS
 10
156.95800
 20
38.99400
 30
 0
 11
156.94300
 21
38.94100
  0
LINE
  8
Kontur
 62
   7
 39
0.100
  6
CONTINUOUS
 10
156.94300
 20
38.94100
 30
 0
 11
156.89400
 21
38.76300
  0
LINE
  8
Kontur
 62
   7
 39
0.100
  6
CONTINUOUS
 10
156.89400
 20
38.76300
 30
 0
 11
156.88000
 21
38.71000
  0
LINE
  8
Kontur
 62
   7
 39
0.100
  6
CONTINUOUS
 10
156.88000
 20
38.71000
 30
 0
 11
156.86900
 21
38.65700
  0
LINE
  8
Kontur
 62
   7
 39
0.100
  6
CONTINUOUS
 10
156.86900
 20
38.65700
 30
 0
 11
156.86000
 21
38.61000
  0
LINE
  8
Kontur
 62
   7
 39
0.100
  6
CONTINUOUS
 10
156.86000
 20
38.61000
 30
 0
 11
156.83000
 21
38.42900
  0
LINE
  8
Kontur
 62
   7
 39
0.100
  6
CONTINUOUS
 10
156.83000
 20
38.42900
 30
 0
 11
156.82200
 21
38.37500
  0
LINE
  8
Kontur
 62
   7
 39
0.100
  6
CONTINUOUS
 10
156.82200
 20
38.37500
 30
 0
 11
156.81600
 21
38.32100
  0
LINE
  8
Kontur
 62
   7
 39
0.100
  6
CONTINUOUS
 10
156.81600
 20
38.32100
 30
 0
 11
156.81200
 21
38.26500
  0
LINE
  8
Kontur
 62
   7
 39
0.100
  6
CONTINUOUS
 10
156.81200
 20
38.26500
 30
 0
 11
156.80200
 21
38.08100
  0
LINE
  8
Kontur
 62
   7
 39
0.100
  6
CONTINUOUS
 10
156.80200
 20
38.08100
 30
 0
 11
156.80000
 21
38.02700
  0
LINE
  8
Kontur
 62
   7
 39
0.100
  6
CONTINUOUS
 10
156.80000
 20
38.02700
 30
 0
 11
156.80000
 21
37.97200
  0
LINE
  8
Kontur
 62
   7
 39
0.100
  6
CONTINUOUS
 10
156.80000
 20
37.97200
 30
 0
 11
156.80200
 21
37.91900
  0
LINE
  8
Kontur
 62
   7
 39
0.100
  6
CONTINUOUS
 10
156.80200
 20
37.91900
 30
 0
 11
156.81200
 21
37.73500
  0
LINE
  8
Kontur
 62
   7
 39
0.100
  6
CONTINUOUS
 10
156.81200
 20
37.73500
 30
 0
 11
156.81600
 21
37.68000
  0
LINE
  8
Kontur
 62
   7
 39
0.100
  6
CONTINUOUS
 10
156.81600
 20
37.68000
 30
 0
 11
156.82200
 21
37.62600
  0
LINE
  8
Kontur
 62
   7
 39
0.100
  6
CONTINUOUS
 10
156.82200
 20
37.62600
 30
 0
 11
156.83000
 21
37.57100
  0
LINE
  8
Kontur
 62
   7
 39
0.100
  6
CONTINUOUS
 10
156.83000
 20
37.57100
 30
 0
 11
156.86000
 21
37.39000
  0
LINE
  8
Kontur
 62
   7
 39
0.100
  6
CONTINUOUS
 10
156.86000
 20
37.39000
 30
 0
 11
156.87000
 21
37.33600
  0
LINE
  8
Kontur
 62
   7
 39
0.100
  6
CONTINUOUS
 10
156.87000
 20
37.33600
 30
 0
 11
156.88200
 21
37.28200
  0
LINE
  8
Kontur
 62
   7
 39
0.100
  6
CONTINUOUS
 10
156.88200
 20
37.28200
 30
 0
 11
156.89400
 21
37.23700
  0
LINE
  8
Kontur
 62
   7
 39
0.100
  6
CONTINUOUS
 10
156.89400
 20
37.23700
 30
 0
 11
156.94300
 21
37.05900
  0
LINE
  8
Kontur
 62
   7
 39
0.100
  6
CONTINUOUS
 10
156.94300
 20
37.05900
 30
 0
 11
156.95800
 21
37.00600
  0
LINE
  8
Kontur
 62
   7
 39
0.100
  6
CONTINUOUS
 10
156.95800
 20
37.00600
 30
 0
 11
156.97600
 21
36.95400
  0
LINE
  8
Kontur
 62
   7
 39
0.100
  6
CONTINUOUS
 10
156.97600
 20
36.95400
 30
 0
 11
156.99500
 21
36.90300
  0
LINE
  8
Kontur
 62
   7
 39
0.100
  6
CONTINUOUS
 10
156.99500
 20
36.90300
 30
 0
 11
157.06300
 21
36.73200
  0
LINE
  8
Kontur
 62
   7
 39
0.100
  6
CONTINUOUS
 10
157.06300
 20
36.73200
 30
 0
 11
157.08400
 21
36.68100
  0
LINE
  8
Kontur
 62
   7
 39
0.100
  6
CONTINUOUS
 10
157.08400
 20
36.68100
 30
 0
 11
157.10700
 21
36.63200
  0
LINE
  8
Kontur
 62
   7
 39
0.100
  6
CONTINUOUS
 10
157.10700
 20
36.63200
 30
 0
 11
157.13200
 21
36.58300
  0
LINE
  8
Kontur
 62
   7
 39
0.100
  6
CONTINUOUS
 10
157.13200
 20
36.58300
 30
 0
 11
157.21800
 21
36.42100
  0
LINE
  8
Kontur
 62
   7
 39
0.100
  6
CONTINUOUS
 10
157.21800
 20
36.42100
 30
 0
 11
157.24500
 21
36.37300
  0
LINE
  8
Kontur
 62
   7
 39
0.100
  6
CONTINUOUS
 10
157.24500
 20
36.37300
 30
 0
 11
157.27300
 21
36.32600
  0
LINE
  8
Kontur
 62
   7
 39
0.100
  6
CONTINUOUS
 10
157.27300
 20
36.32600
 30
 0
 11
157.30200
 21
36.28100
  0
LINE
  8
Kontur
 62
   7
 39
0.100
  6
CONTINUOUS
 10
157.30200
 20
36.28100
 30
 0
 11
157.40600
 21
36.12800
  0
LINE
  8
Kontur
 62
   7
 39
0.100
  6
CONTINUOUS
 10
157.40600
 20
36.12800
 30
 0
 11
157.43800
 21
36.08300
  0
LINE
  8
Kontur
 62
   7
 39
0.100
  6
CONTINUOUS
 10
157.43800
 20
36.08300
 30
 0
 11
157.47100
 21
36.03900
  0
LINE
  8
Kontur
 62
   7
 39
0.100
  6
CONTINUOUS
 10
157.47100
 20
36.03900
 30
 0
 11
157.50400
 21
36.00000
  0
LINE
  8
Kontur
 62
   7
 39
0.100
  6
CONTINUOUS
 10
157.50400
 20
36.00000
 30
 0
 11
157.62300
 21
35.86000
  0
LINE
  8
Kontur
 62
   7
 39
0.100
  6
CONTINUOUS
 10
157.62300
 20
35.86000
 30
 0
 11
157.65900
 21
35.81800
  0
LINE
  8
Kontur
 62
   7
 39
0.100
  6
CONTINUOUS
 10
157.65900
 20
35.81800
 30
 0
 11
157.69700
 21
35.77900
  0
LINE
  8
Kontur
 62
   7
 39
0.100
  6
CONTINUOUS
 10
157.69700
 20
35.77900
 30
 0
 11
157.73000
 21
35.74600
  0
LINE
  8
Kontur
 62
   7
 39
0.100
  6
CONTINUOUS
 10
157.73000
 20
35.74600
 30
 0
 11
157.86300
 21
35.61900
  0
LINE
  8
Kontur
 62
   7
 39
0.100
  6
CONTINUOUS
 10
157.86300
 20
35.61900
 30
 0
 11
157.90300
 21
35.58200
  0
LINE
  8
Kontur
 62
   7
 39
0.100
  6
CONTINUOUS
 10
157.90300
 20
35.58200
 30
 0
 11
157.94500
 21
35.54600
  0
LINE
  8
Kontur
 62
   7
 39
0.100
  6
CONTINUOUS
 10
157.94500
 20
35.54600
 30
 0
 11
157.99500
 21
35.50700
  0
LINE
  8
Kontur
 62
   7
 39
0.100
  6
CONTINUOUS
 10
157.99500
 20
35.50700
 30
 0
 11
158.14200
 21
35.39600
  0
LINE
  8
Kontur
 62
   7
 39
0.100
  6
CONTINUOUS
 10
158.14200
 20
35.39600
 30
 0
 11
158.18600
 21
35.36400
  0
LINE
  8
Kontur
 62
   7
 39
0.100
  6
CONTINUOUS
 10
158.18600
 20
35.36400
 30
 0
 11
158.23200
 21
35.33300
  0
LINE
  8
Kontur
 62
   7
 39
0.100
  6
CONTINUOUS
 10
158.23200
 20
35.33300
 30
 0
 11
158.27300
 21
35.30700
  0
LINE
  8
Kontur
 62
   7
 39
0.100
  6
CONTINUOUS
 10
158.27300
 20
35.30700
 30
 0
 11
158.43100
 21
35.21200
  0
LINE
  8
Kontur
 62
   7
 39
0.100
  6
CONTINUOUS
 10
158.43100
 20
35.21200
 30
 0
 11
158.47900
 21
35.18500
  0
LINE
  8
Kontur
 62
   7
 39
0.100
  6
CONTINUOUS
 10
158.47900
 20
35.18500
 30
 0
 11
158.52700
 21
35.16000
  0
LINE
  8
Kontur
 62
   7
 39
0.100
  6
CONTINUOUS
 10
158.52700
 20
35.16000
 30
 0
 11
158.57600
 21
35.13600
  0
LINE
  8
Kontur
 62
   7
 39
0.100
  6
CONTINUOUS
 10
158.57600
 20
35.13600
 30
 0
 11
158.74300
 21
35.05900
  0
LINE
  8
Kontur
 62
   7
 39
0.100
  6
CONTINUOUS
 10
158.74300
 20
35.05900
 30
 0
 11
158.79300
 21
35.03700
  0
LINE
  8
Kontur
 62
   7
 39
0.100
  6
CONTINUOUS
 10
158.79300
 20
35.03700
 30
 0
 11
158.84400
 21
35.01700
  0
LINE
  8
Kontur
 62
   7
 39
0.100
  6
CONTINUOUS
 10
158.84400
 20
35.01700
 30
 0
 11
158.88900
 21
35.00000
  0
LINE
  8
Kontur
 62
   7
 39
0.100
  6
CONTINUOUS
 10
158.88900
 20
35.00000
 30
 0
 11
159.06300
 21
34.94100
  0
LINE
  8
Kontur
 62
   7
 39
0.100
  6
CONTINUOUS
 10
159.06300
 20
34.94100
 30
 0
 11
159.11500
 21
34.92500
  0
LINE
  8
Kontur
 62
   7
 39
0.100
  6
CONTINUOUS
 10
159.11500
 20
34.92500
 30
 0
 11
159.16800
 21
34.91000
  0
LINE
  8
Kontur
 62
   7
 39
0.100
  6
CONTINUOUS
 10
159.16800
 20
34.91000
 30
 0
 11
159.22000
 21
34.89800
  0
LINE
  8
Kontur
 62
   7
 39
0.100
  6
CONTINUOUS
 10
159.22000
 20
34.89800
 30
 0
 11
159.40000
 21
34.85800
  0
LINE
  8
Kontur
 62
   7
 39
0.100
  6
CONTINUOUS
 10
159.40000
 20
34.85800
 30
 0
 11
159.45300
 21
34.84700
  0
LINE
  8
Kontur
 62
   7
 39
0.100
  6
CONTINUOUS
 10
159.45300
 20
34.84700
 30
 0
 11
159.50700
 21
34.83800
  0
LINE
  8
Kontur
 62
   7
 39
0.100
  6
CONTINUOUS
 10
159.50700
 20
34.83800
 30
 0
 11
159.56200
 21
34.83100
  0
LINE
  8
Kontur
 62
   7
 39
0.100
  6
CONTINUOUS
 10
159.56200
 20
34.83100
 30
 0
 11
159.74500
 21
34.81100
  0
LINE
  8
Kontur
 62
   7
 39
0.100
  6
CONTINUOUS
 10
159.74500
 20
34.81100
 30
 0
 11
159.80000
 21
34.80600
  0
LINE
  8
Kontur
 62
   7
 39
0.100
  6
CONTINUOUS
 10
159.80000
 20
34.80600
 30
 0
 11
159.85400
 21
34.80300
  0
LINE
  8
Kontur
 62
   7
 39
0.100
  6
CONTINUOUS
 10
159.85400
 20
34.80300
 30
 0
 11
159.90800
 21
34.80200
  0
LINE
  8
Kontur
 62
   7
 39
0.100
  6
CONTINUOUS
 10
159.90800
 20
34.80200
 30
 0
 11
160.09200
 21
34.80200
  0
LINE
  8
Kontur
 62
   7
 39
0.100
  6
CONTINUOUS
 10
160.09200
 20
34.80200
 30
 0
 11
160.14700
 21
34.80300
  0
CIRCLE
  8
Kontur
 62
   7
 39
0.100
  6
CONTINUOUS
 10
160.00000
 20
38.00000
 30
 0
 40
1.70000
  0
LINE
  8
Kontur
 62
   7
 39
0.100
  6
CONTINUOUS
 10
4.14700
 20
34.80300
 30
 0
 11
4.20100
 21
34.80600
  0
LINE
  8
Kontur
 62
   7
 39
0.100
  6
CONTINUOUS
 10
4.20100
 20
34.80600
 30
 0
 11
4.25500
 21
34.81100
  0
LINE
  8
Kontur
 62
   7
 39
0.100
  6
CONTINUOUS
 10
4.25500
 20
34.81100
 30
 0
 11
4.43800
 21
34.83100
  0
LINE
  8
Kontur
 62
   7
 39
0.100
  6
CONTINUOUS
 10
4.43800
 20
34.83100
 30
 0
 11
4.49200
 21
34.83800
  0
LINE
  8
Kontur
 62
   7
 39
0.100
  6
CONTINUOUS
 10
4.49200
 20
34.83800
 30
 0
 11
4.54600
 21
34.84700
  0
LINE
  8
Kontur
 62
   7
 39
0.100
  6
CONTINUOUS
 10
4.54600
 20
34.84700
 30
 0
 11
4.60000
 21
34.85800
  0
LINE
  8
Kontur
 62
   7
 39
0.100
  6
CONTINUOUS
 10
4.60000
 20
34.85800
 30
 0
 11
4.78000
 21
34.89800
  0
LINE
  8
Kontur
 62
   7
 39
0.100
  6
CONTINUOUS
 10
4.78000
 20
34.89800
 30
 0
 11
4.83400
 21
34.91100
  0
LINE
  8
Kontur
 62
   7
 39
0.100
  6
CONTINUOUS
 10
4.83400
 20
34.91100
 30
 0
 11
4.88600
 21
34.92500
  0
LINE
  8
Kontur
 62
   7
 39
0.100
  6
CONTINUOUS
 10
4.88600
 20
34.92500
 30
 0
 11
4.93700
 21
34.94100
  0
LINE
  8
Kontur
 62
   7
 39
0.100
  6
CONTINUOUS
 10
4.93700
 20
34.94100
 30
 0
 11
5.11100
 21
35.00000
  0
LINE
  8
Kontur
 62
   7
 39
0.100
  6
CONTINUOUS
 10
5.11100
 20
35.00000
 30
 0
 11
5.16200
 21
35.01900
  0
LINE
  8
Kontur
 62
   7
 39
0.100
  6
CONTINUOUS
 10
5.16200
 20
35.01900
 30
 0
 11
5.21300
 21
35.03900
  0
LINE
  8
Kontur
 62
   7
 39
0.100
  6
CONTINUOUS
 10
5.21300
 20
35.03900
 30
 0
 11
5.25700
 21
35.05900
  0
LINE
  8
Kontur
 62
   7
 39
0.100
  6
CONTINUOUS
 10
5.25700
 20
35.05900
 30
 0
 11
5.42400
 21
35.13600
  0
LINE
  8
Kontur
 62
   7
 39
0.100
  6
CONTINUOUS
 10
5.42400
 20
35.13600
 30
 0
 11
5.47300
 21
35.16000
  0
LINE
  8
Kontur
 62
   7
 39
0.100
  6
CONTINUOUS
 10
5.47300
 20
35.16000
 30
 0
 11
5.52200
 21
35.18500
  0
LINE
  8
Kontur
 62
   7
 39
0.100
  6
CONTINUOUS
 10
5.52200
 20
35.18500
 30
 0
 11
5.56900
 21
35.21200
  0
LINE
  8
Kontur
 62
   7
 39
0.100
  6
CONTINUOUS
 10
5.56900
 20
35.21200
 30
 0
 11
5.72700
 21
35.30700
  0
LINE
  8
Kontur
 62
   7
 39
0.100
  6
CONTINUOUS
 10
5.72700
 20
35.30700
 30
 0
 11
5.81900
 21
35.36700
  0
LINE
  8
Kontur
 62
   7
 39
0.100
  6
CONTINUOUS
 10
5.81900
 20
35.36700
 30
 0
 11
5.85800
 21
35.39600
  0
LINE
  8
Kontur
 62
   7
 39
0.100
  6
CONTINUOUS
 10
5.85800
 20
35.39600
 30
 0
 11
6.00500
 21
35.50700
  0
LINE
  8
Kontur
 62
   7
 39
0.100
  6
CONTINUOUS
 10
6.00500
 20
35.50700
 30
 0
 11
6.04800
 21
35.54100
  0
LINE
  8
Kontur
 62
   7
 39
0.100
  6
CONTINUOUS
 10
6.04800
 20
35.54100
 30
 0
 11
6.09000
 21
35.57600
  0
LINE
  8
Kontur
 62
   7
 39
0.100
  6
CONTINUOUS
 10
6.09000
 20
35.57600
 30
 0
 11
6.13700
 21
35.61900
  0
LINE
  8
Kontur
 62
   7
 39
0.100
  6
CONTINUOUS
 10
6.13700
 20
35.61900
 30
 0
 11
6.27000
 21
35.74600
  0
LINE
  8
Kontur
 62
   7
 39
0.100
  6
CONTINUOUS
 10
6.27000
 20
35.74600
 30
 0
 11
6.30900
 21
35.78500
  0
LINE
  8
Kontur
 62
   7
 39
0.100
  6
CONTINUOUS
 10
6.30900
 20
35.78500
 30
 0
 11
6.34600
 21
35.82500
  0
LINE
  8
Kontur
 62
   7
 39
0.100
  6
CONTINUOUS
 10
6.34600
 20
35.82500
 30
 0
 11
6.37700
 21
35.86000
  0
LINE
  8
Kontur
 62
   7
 39
0.100
  6
CONTINUOUS
 10
6.37700
 20
35.86000
 30
 0
 11
6.49600
 21
36.00000
  0
LINE
  8
Kontur
 62
   7
 39
0.100
  6
CONTINUOUS
 10
6.49600
 20
36.00000
 30
 0
 11
6.53100
 21
36.04200
  0
LINE
  8
Kontur
 62
   7
 39
0.100
  6
CONTINUOUS
 10
6.53100
 20
36.04200
 30
 0
 11
6.56400
 21
36.08600
  0
LINE
  8
Kontur
 62
   7
 39
0.100
  6
CONTINUOUS
 10
6.56400
 20
36.08600
 30
 0
 11
6.59400
 21
36.12800
  0
LINE
  8
Kontur
 62
   7
 39
0.100
  6
CONTINUOUS
 10
6.59400
 20
36.12800
 30
 0
 11
6.69800
 21
36.28100
  0
LINE
  8
Kontur
 62
   7
 39
0.100
  6
CONTINUOUS
 10
6.69800
 20
36.28100
 30
 0
 11
6.72700
 21
36.32700
  0
LINE
  8
Kontur
 62
   7
 39
0.100
  6
CONTINUOUS
 10
6.72700
 20
36.32700
 30
 0
 11
6.75600
 21
36.37400
  0
LINE
  8
Kontur
 62
   7
 39
0.100
  6
CONTINUOUS
 10
6.75600
 20
36.37400
 30
 0
 11
6.78200
 21
36.42100
  0
LINE
  8
Kontur
 62
   7
 39
0.100
  6
CONTINUOUS
 10
6.78200
 20
36.42100
 30
 0
 11
6.86800
 21
36.58300
  0
LINE
  8
Kontur
 62
   7
 39
0.100
  6
CONTINUOUS
 10
6.86800
 20
36.58300
 30
 0
 11
6.89300
 21
36.63200
  0
LINE
  8
Kontur
 62
   7
 39
0.100
  6
CONTINUOUS
 10
6.89300
 20
36.63200
 30
 0
 11
6.91600
 21
36.68100
  0
LINE
  8
Kontur
 62
   7
 39
0.100
  6
CONTINUOUS
 10
6.91600
 20
36.68100
 30
 0
 11
6.93700
 21
36.73200
  0
LINE
  8
Kontur
 62
   7
 39
0.100
  6
CONTINUOUS
 10
6.93700
 20
36.73200
 30
 0
 11
7.00500
 21
36.90300
  0
LINE
  8
Kontur
 62
   7
 39
0.100
  6
CONTINUOUS
 10
7.00500
 20
36.90300
 30
 0
 11
7.02400
 21
36.95400
  0
LINE
  8
Kontur
 62
   7
 39
0.100
  6
CONTINUOUS
 10
7.02400
 20
36.95400
 30
 0
 11
7.04200
 21
37.00600
  0
LINE
  8
Kontur
 62
   7
 39
0.100
  6
CONTINUOUS
 10
7.04200
 20
37.00600
 30
 0
 11
7.05700
 21
37.05900
  0
LINE
  8
Kontur
 62
   7
 39
0.100
  6
CONTINUOUS
 10
7.05700
 20
37.05900
 30
 0
 11
7.10600
 21
37.23700
  0
LINE
  8
Kontur
 62
   7
 39
0.100
  6
CONTINUOUS
 10
7.10600
 20
37.23700
 30
 0
 11
7.12000
 21
37.29000
  0
LINE
  8
Kontur
 62
   7
 39
0.100
  6
CONTINUOUS
 10
7.12000
 20
37.29000
 30
 0
 11
7.13100
 21
37.34300
  0
LINE
  8
Kontur
 62
   7
 39
0.100
  6
CONTINUOUS
 10
7.13100
 20
37.34300
 30
 0
 11
7.14000
 21
37.39000
  0
LINE
  8
Kontur
 62
   7
 39
0.100
  6
CONTINUOUS
 10
7.14000
 20
37.39000
 30
 0
 11
7.17000
 21
37.57100
  0
LINE
  8
Kontur
 62
   7
 39
0.100
  6
CONTINUOUS
 10
7.17000
 20
37.57100
 30
 0
 11
7.17800
 21
37.62500
  0
LINE
  8
Kontur
 62
   7
 39
0.100
  6
CONTINUOUS
 10
7.17800
 20
37.62500
 30
 0
 11
7.18400
 21
37.67900
  0
LINE
  8
Kontur
 62
   7
 39
0.100
  6
CONTINUOUS
 10
7.18400
 20
37.67900
 30
 0
 11
7.18800
 21
37.73500
  0
LINE
  8
Kontur
 62
   7
 39
0.100
  6
CONTINUOUS
 10
7.18800
 20
37.73500
 30
 0
 11
7.19800
 21
37.91900
  0
LINE
  8
Kontur
 62
   7
 39
0.100
  6
CONTINUOUS
 10
7.19800
 20
37.91900
 30
 0
 11
7.20000
 21
37.97300
  0
LINE
  8
Kontur
 62
   7
 39
0.100
  6
CONTINUOUS
 10
7.20000
 20
37.97300
 30
 0
 11
7.20000
 21
38.02800
  0
LINE
  8
Kontur
 62
   7
 39
0.100
  6
CONTINUOUS
 10
7.20000
 20
38.02800
 30
 0
 11
7.19800
 21
38.08100
  0
LINE
  8
Kontur
 62
   7
 39
0.100
  6
CONTINUOUS
 10
7.19800
 20
38.08100
 30
 0
 11
7.18800
 21
38.26500
  0
LINE
  8
Kontur
 62
   7
 39
0.100
  6
CONTINUOUS
 10
7.18800
 20
38.26500
 30
 0
 11
7.18400
 21
38.32000
  0
LINE
  8
Kontur
 62
   7
 39
0.100
  6
CONTINUOUS
 10
7.18400
 20
38.32000
 30
 0
 11
7.17800
 21
38.37400
  0
LINE
  8
Kontur
 62
   7
 39
0.100
  6
CONTINUOUS
 10
7.17800
 20
38.37400
 30
 0
 11
7.17000
 21
38.42900
  0
LINE
  8
Kontur
 62
   7
 39
0.100
  6
CONTINUOUS
 10
7.17000
 20
38.42900
 30
 0
 11
7.14000
 21
38.61000
  0
LINE
  8
Kontur
 62
   7
 39
0.100
  6
CONTINUOUS
 10
7.14000
 20
38.61000
 30
 0
 11
7.13000
 21
38.66400
  0
LINE
  8
Kontur
 62
   7
 39
0.100
  6
CONTINUOUS
 10
7.13000
 20
38.66400
 30
 0
 11
7.11800
 21
38.71800
  0
LINE
  8
Kontur
 62
   7
 39
0.100
  6
CONTINUOUS
 10
7.11800
 20
38.71800
 30
 0
 11
7.10600
 21
38.76300
  0
LINE
  8
Kontur
 62
   7
 39
0.100
  6
CONTINUOUS
 10
7.10600
 20
38.76300
 30
 0
 11
7.05700
 21
38.94100
  0
LINE
  8
Kontur
 62
   7
 39
0.100
  6
CONTINUOUS
 10
7.05700
 20
38.94100
 30
 0
 11
7.04200
 21
38.99400
  0
LINE
  8
Kontur
 62
   7
 39
0.100
  6
CONTINUOUS
 10
7.04200
 20
38.99400
 30
 0
 11
7.02400
 21
39.04600
  0
LINE
  8
Kontur
 62
   7
 39
0.100
  6
CONTINUOUS
 10
7.02400
 20
39.04600
 30
 0
 11
7.00500
 21
39.09700
  0
LINE
  8
Kontur
 62
   7
 39
0.100
  6
CONTINUOUS
 10
7.00500
 20
39.09700
 30
 0
 11
6.93700
 21
39.26800
  0
LINE
  8
Kontur
 62
   7
 39
0.100
  6
CONTINUOUS
 10
6.93700
 20
39.26800
 30
 0
 11
6.91600
 21
39.31900
  0
LINE
  8
Kontur
 62
   7
 39
0.100
  6
CONTINUOUS
 10
6.91600
 20
39.31900
 30
 0
 11
6.89300
 21
39.36800
  0
LINE
  8
Kontur
 62
   7
 39
0.100
  6
CONTINUOUS
 10
6.89300
 20
39.36800
 30
 0
 11
6.86800
 21
39.41700
  0
LINE
  8
Kontur
 62
   7
 39
0.100
  6
CONTINUOUS
 10
6.86800
 20
39.41700
 30
 0
 11
6.78200
 21
39.57900
  0
LINE
  8
Kontur
 62
   7
 39
0.100
  6
CONTINUOUS
 10
6.78200
 20
39.57900
 30
 0
 11
6.75500
 21
39.62700
  0
LINE
  8
Kontur
 62
   7
 39
0.100
  6
CONTINUOUS
 10
6.75500
 20
39.62700
 30
 0
 11
6.72700
 21
39.67400
  0
LINE
  8
Kontur
 62
   7
 39
0.100
  6
CONTINUOUS
 10
6.72700
 20
39.67400
 30
 0
 11
6.69800
 21
39.71900
  0
LINE
  8
Kontur
 62
   7
 39
0.100
  6
CONTINUOUS
 10
6.69800
 20
39.71900
 30
 0
 11
6.59400
 21
39.87200
  0
LINE
  8
Kontur
 62
   7
 39
0.100
  6
CONTINUOUS
 10
6.59400
 20
39.87200
 30
 0
 11
6.56200
 21
39.91700
  0
LINE
  8
Kontur
 62
   7
 39
0.100
  6
CONTINUOUS
 10
6.56200
 20
39.91700
 30
 0
 11
6.52900
 21
39.96100
  0
LINE
  8
Kontur
 62
   7
 39
0.100
  6
CONTINUOUS
 10
6.52900
 20
39.96100
 30
 0
 11
6.49600
 21
40.00000
  0
LINE
  8
Kontur
 62
   7
 39
0.100
  6
CONTINUOUS
 10
6.49600
 20
40.00000
 30
 0
 11
6.37700
 21
40.14000
  0
LINE
  8
Kontur
 62
   7
 39
0.100
  6
CONTINUOUS
 10
6.37700
 20
40.14000
 30
 0
 11
6.34100
 21
40.18200
  0
LINE
  8
Kontur
 62
   7
 39
0.100
  6
CONTINUOUS
 10
6.34100
 20
40.18200
 30
 0
 11
6.30300
 21
40.22100
  0
LINE
  8
Kontur
 62
   7
 39
0.100
  6
CONTINUOUS
 10
6.30300
 20
40.22100
 30
 0
 11
6.27000
 21
40.25400
  0
LINE
  8
Kontur
 62
   7
 39
0.100
  6
CONTINUOUS
 10
6.27000
 20
40.25400
 30
 0
 11
6.13700
 21
40.38100
  0
LINE
  8
Kontur
 62
   7
 39
0.100
  6
CONTINUOUS
 10
6.13700
 20
40.38100
 30
 0
 11
6.09700
 21
40.41800
  0
LINE
  8
Kontur
 62
   7
 39
0.100
  6
CONTINUOUS
 10
6.09700
 20
40.41800
 30
 0
 11
6.05500
 21
40.45400
  0
LINE
  8
Kontur
 62
   7
 39
0.100
  6
CONTINUOUS
 10
6.05500
 20
40.45400
 30
 0
 11
6.00500
 21
40.49300
  0
LINE
  8
Kontur
 62
   7
 39
0.100
  6
CONTINUOUS
 10
6.00500
 20
40.49300
 30
 0
 11
5.85800
 21
40.60400
  0
LINE
  8
Kontur
 62
   7
 39
0.100
  6
CONTINUOUS
 10
5.85800
 20
40.60400
 30
 0
 11
5.81400
 21
40.63600
  0
LINE
  8
Kontur
 62
   7
 39
0.100
  6
CONTINUOUS
 10
5.81400
 20
40.63600
 30
 0
 11
5.76800
 21
40.66700
  0
LINE
  8
Kontur
 62
   7
 39
0.100
  6
CONTINUOUS
 10
5.76800
 20
40.66700
 30
 0
 11
5.72700
 21
40.69300
  0
LINE
  8
Kontur
 62
   7
 39
0.100
  6
CONTINUOUS
 10
5.72700
 20
40.69300
 30
 0
 11
5.56900
 21
40.78800
  0
LINE
  8
Kontur
 62
   7
 39
0.100
  6
CONTINUOUS
 10
5.56900
 20
40.78800
 30
 0
 11
5.52100
 21
40.81500
  0
LINE
  8
Kontur
 62
   7
 39
0.100
  6
CONTINUOUS
 10
5.52100
 20
40.81500
 30
 0
 11
5.47300
 21
40.84000
  0
LINE
  8
Kontur
 62
   7
 39
0.100
  6
CONTINUOUS
 10
5.47300
 20
40.84000
 30
 0
 11
5.42400
 21
40.86400
  0
LINE
  8
Kontur
 62
   7
 39
0.100
  6
CONTINUOUS
 10
5.42400
 20
40.86400
 30
 0
 11
5.25700
 21
40.94100
  0
LINE
  8
Kontur
 62
   7
 39
0.100
  6
CONTINUOUS
 10
5.25700
 20
40.94100
 30
 0
 11
5.20700
 21
40.96300
  0
LINE
  8
Kontur
 62
   7
 39
0.100
  6
CONTINUOUS
 10
5.20700
 20
40.96300
 30
 0
 11
5.15600
 21
40.98300
  0
LINE
  8
Kontur
 62
   7
 39
0.100
  6
CONTINUOUS
 10
5.15600
 20
40.98300
 30
 0
 11
5.11100
 21
41.00000
  0
LINE
  8
Kontur
 62
   7
 39
0.100
  6
CONTINUOUS
 10
5.11100
 20
41.00000
 30
 0
 11
4.93700
 21
41.05900
  0
LINE
  8
Kontur
 62
   7
 39
0.100
  6
CONTINUOUS
 10
4.93700
 20
41.05900
 30
 0
 11
4.88500
 21
41.07500
  0
LINE
  8
Kontur
 62
   7
 39
0.100
  6
CONTINUOUS
 10
4.88500
 20
41.07500
 30
 0
 11
4.83200
 21
41.09000
  0
LINE
  8
Kontur
 62
   7
 39
0.100
  6
CONTINUOUS
 10
4.83200
 20
41.09000
 30
 0
 11
4.78000
 21
41.10200
  0
LINE
  8
Kontur
 62
   7
 39
0.100
  6
CONTINUOUS
 10
4.78000
 20
41.10200
 30
 0
 11
4.60000
 21
41.14200
  0
LINE
  8
Kontur
 62
   7
 39
0.100
  6
CONTINUOUS
 10
4.60000
 20
41.14200
 30
 0
 11
4.54700
 21
41.15300
  0
LINE
  8
Kontur
 62
   7
 39
0.100
  6
CONTINUOUS
 10
4.54700
 20
41.15300
 30
 0
 11
4.49300
 21
41.16200
  0
LINE
  8
Kontur
 62
   7
 39
0.100
  6
CONTINUOUS
 10
4.49300
 20
41.16200
 30
 0
 11
4.43800
 21
41.16900
  0
LINE
  8
Kontur
 62
   7
 39
0.100
  6
CONTINUOUS
 10
4.43800
 20
41.16900
 30
 0
 11
4.25500
 21
41.18900
  0
LINE
  8
Kontur
 62
   7
 39
0.100
  6
CONTINUOUS
 10
4.25500
 20
41.18900
 30
 0
 11
4.20000
 21
41.19400
  0
LINE
  8
Kontur
 62
   7
 39
0.100
  6
CONTINUOUS
 10
4.20000
 20
41.19400
 30
 0
 11
4.14600
 21
41.19700
  0
LINE
  8
Kontur
 62
   7
 39
0.100
  6
CONTINUOUS
 10
4.14600
 20
41.19700
 30
 0
 11
4.09200
 21
41.19800
  0
LINE
  8
Kontur
 62
   7
 39
0.100
  6
CONTINUOUS
 10
4.09200
 20
41.19800
 30
 0
 11
3.90800
 21
41.19800
  0
LINE
  8
Kontur
 62
   7
 39
0.100
  6
CONTINUOUS
 10
3.90800
 20
41.19800
 30
 0
 11
3.85300
 21
41.19700
  0
LINE
  8
Kontur
 62
   7
 39
0.100
  6
CONTINUOUS
 10
3.85300
 20
41.19700
 30
 0
 11
3.79900
 21
41.19400
  0
LINE
  8
Kontur
 62
   7
 39
0.100
  6
CONTINUOUS
 10
3.79900
 20
41.19400
 30
 0
 11
3.74500
 21
41.18900
  0
LINE
  8
Kontur
 62
   7
 39
0.100
  6
CONTINUOUS
 10
3.74500
 20
41.18900
 30
 0
 11
3.56200
 21
41.16900
  0
LINE
  8
Kontur
 62
   7
 39
0.100
  6
CONTINUOUS
 10
3.56200
 20
41.16900
 30
 0
 11
3.50800
 21
41.16200
  0
LINE
  8
Kontur
 62
   7
 39
0.100
  6
CONTINUOUS
 10
3.50800
 20
41.16200
 30
 0
 11
3.45400
 21
41.15300
  0
LINE
  8
Kontur
 62
   7
 39
0.100
  6
CONTINUOUS
 10
3.45400
 20
41.15300
 30
 0
 11
3.40000
 21
41.14200
  0
LINE
  8
Kontur
 62
   7
 39
0.100
  6
CONTINUOUS
 10
3.40000
 20
41.14200
 30
 0
 11
3.22000
 21
41.10200
  0
LINE
  8
Kontur
 62
   7
 39
0.100
  6
CONTINUOUS
 10
3.22000
 20
41.10200
 30
 0
 11
3.16600
 21
41.08900
  0
LINE
  8
Kontur
 62
   7
 39
0.100
  6
CONTINUOUS
 10
3.16600
 20
41.08900
 30
 0
 11
3.11400
 21
41.07500
  0
LINE
  8
Kontur
 62
   7
 39
0.100
  6
CONTINUOUS
 10
3.11400
 20
41.07500
 30
 0
 11
3.06300
 21
41.05900
  0
LINE
  8
Kontur
 62
   7
 39
0.100
  6
CONTINUOUS
 10
3.06300
 20
41.05900
 30
 0
 11
2.88900
 21
41.00000
  0
LINE
  8
Kontur
 62
   7
 39
0.100
  6
CONTINUOUS
 10
2.88900
 20
41.00000
 30
 0
 11
2.83800
 21
40.98100
  0
LINE
  8
Kontur
 62
   7
 39
0.100
  6
CONTINUOUS
 10
2.83800
 20
40.98100
 30
 0
 11
2.78700
 21
40.96100
  0
LINE
  8
Kontur
 62
   7
 39
0.100
  6
CONTINUOUS
 10
2.78700
 20
40.96100
 30
 0
 11
2.74300
 21
40.94100
  0
LINE
  8
Kontur
 62
   7
 39
0.100
  6
CONTINUOUS
 10
2.74300
 20
40.94100
 30
 0
 11
2.57600
 21
40.86400
  0
LINE
  8
Kontur
 62
   7
 39
0.100
  6
CONTINUOUS
 10
2.57600
 20
40.86400
 30
 0
 11
2.52700
 21
40.84000
  0
LINE
  8
Kontur
 62
   7
 39
0.100
  6
CONTINUOUS
 10
2.52700
 20
40.84000
 30
 0
 11
2.47800
 21
40.81500
  0
LINE
  8
Kontur
 62
   7
 39
0.100
  6
CONTINUOUS
 10
2.47800
 20
40.81500
 30
 0
 11
2.43100
 21
40.78800
  0
LINE
  8
Kontur
 62
   7
 39
0.100
  6
CONTINUOUS
 10
2.43100
 20
40.78800
 30
 0
 11
2.27300
 21
40.69300
  0
LINE
  8
Kontur
 62
   7
 39
0.100
  6
CONTINUOUS
 10
2.27300
 20
40.69300
 30
 0
 11
2.18100
 21
40.63300
  0
LINE
  8
Kontur
 62
   7
 39
0.100
  6
CONTINUOUS
 10
2.18100
 20
40.63300
 30
 0
 11
2.14200
 21
40.60400
  0
LINE
  8
Kontur
 62
   7
 39
0.100
  6
CONTINUOUS
 10
2.14200
 20
40.60400
 30
 0
 11
1.99500
 21
40.49300
  0
LINE
  8
Kontur
 62
   7
 39
0.100
  6
CONTINUOUS
 10
1.99500
 20
40.49300
 30
 0
 11
1.95200
 21
40.45900
  0
LINE
  8
Kontur
 62
   7
 39
0.100
  6
CONTINUOUS
 10
1.95200
 20
40.45900
 30
 0
 11
1.91000
 21
40.42400
  0
LINE
  8
Kontur
 62
   7
 39
0.100
  6
CONTINUOUS
 10
1.91000
 20
40.42400
 30
 0
 11
1.86300
 21
40.38100
  0
LINE
  8
Kontur
 62
   7
 39
0.100
  6
CONTINUOUS
 10
1.86300
 20
40.38100
 30
 0
 11
1.73000
 21
40.25400
  0
LINE
  8
Kontur
 62
   7
 39
0.100
  6
CONTINUOUS
 10
1.73000
 20
40.25400
 30
 0
 11
1.69100
 21
40.21500
  0
LINE
  8
Kontur
 62
   7
 39
0.100
  6
CONTINUOUS
 10
1.69100
 20
40.21500
 30
 0
 11
1.65400
 21
40.17500
  0
LINE
  8
Kontur
 62
   7
 39
0.100
  6
CONTINUOUS
 10
1.65400
 20
40.17500
 30
 0
 11
1.62300
 21
40.14000
  0
LINE
  8
Kontur
 62
   7
 39
0.100
  6
CONTINUOUS
 10
1.62300
 20
40.14000
 30
 0
 11
1.50400
 21
40.00000
  0
LINE
  8
Kontur
 62
   7
 39
0.100
  6
CONTINUOUS
 10
1.50400
 20
40.00000
 30
 0
 11
1.46900
 21
39.95800
  0
LINE
  8
Kontur
 62
   7
 39
0.100
  6
CONTINUOUS
 10
1.46900
 20
39.95800
 30
 0
 11
1.43600
 21
39.91400
  0
LINE
  8
Kontur
 62
   7
 39
0.100
  6
CONTINUOUS
 10
1.43600
 20
39.91400
 30
 0
 11
1.40600
 21
39.87200
  0
LINE
  8
Kontur
 62
   7
 39
0.100
  6
CONTINUOUS
 10
1.40600
 20
39.87200
 30
 0
 11
1.30200
 21
39.71900
  0
LINE
  8
Kontur
 62
   7
 39
0.100
  6
CONTINUOUS
 10
1.30200
 20
39.71900
 30
 0
 11
1.27300
 21
39.67300
  0
LINE
  8
Kontur
 62
   7
 39
0.100
  6
CONTINUOUS
 10
1.27300
 20
39.67300
 30
 0
 11
1.24400
 21
39.62600
  0
LINE
  8
Kontur
 62
   7
 39
0.100
  6
CONTINUOUS
 10
1.24400
 20
39.62600
 30
 0
 11
1.21800
 21
39.57900
  0
LINE
  8
Kontur
 62
   7
 39
0.100
  6
CONTINUOUS
 10
1.21800
 20
39.57900
 30
 0
 11
1.13200
 21
39.41700
  0
LINE
  8
Kontur
 62
   7
 39
0.100
  6
CONTINUOUS
 10
1.13200
 20
39.41700
 30
 0
 11
1.10700
 21
39.36800
  0
LINE
  8
Kontur
 62
   7
 39
0.100
  6
CONTINUOUS
 10
1.10700
 20
39.36800
 30
 0
 11
1.08400
 21
39.31900
  0
LINE
  8
Kontur
 62
   7
 39
0.100
  6
CONTINUOUS
 10
1.08400
 20
39.31900
 30
 0
 11
1.06300
 21
39.26800
  0
LINE
  8
Kontur
 62
   7
 39
0.100
  6
CONTINUOUS
 10
1.06300
 20
39.26800
 30
 0
 11
0.99500
 21
39.09700
  0
LINE
  8
Kontur
 62
   7
 39
0.100
  6
CONTINUOUS
 10
0.99500
 20
39.09700
 30
 0
 11
0.97600
 21
39.04600
  0
LINE
  8
Kontur
 62
   7
 39
0.100
  6
CONTINUOUS
 10
0.97600
 20
39.04600
 30
 0
 11
0.95800
 21
38.99400
  0
LINE
  8
Kontur
 62
   7
 39
0.100
  6
CONTINUOUS
 10
0.95800
 20
38.99400
 30
 0
 11
0.94300
 21
38.94100
  0
LINE
  8
Kontur
 62
   7
 39
0.100
  6
CONTINUOUS
 10
0.94300
 20
38.94100
 30
 0
 11
0.89400
 21
38.76300
  0
LINE
  8
Kontur
 62
   7
 39
0.100
  6
CONTINUOUS
 10
0.89400
 20
38.76300
 30
 0
 11
0.88000
 21
38.71000
  0
LINE
  8
Kontur
 62
   7
 39
0.100
  6
CONTINUOUS
 10
0.88000
 20
38.71000
 30
 0
 11
0.86900
 21
38.65700
  0
LINE
  8
Kontur
 62
   7
 39
0.100
  6
CONTINUOUS
 10
0.86900
 20
38.65700
 30
 0
 11
0.86000
 21
38.61000
  0
LINE
  8
Kontur
 62
   7
 39
0.100
  6
CONTINUOUS
 10
0.86000
 20
38.61000
 30
 0
 11
0.83000
 21
38.42900
  0
LINE
  8
Kontur
 62
   7
 39
0.100
  6
CONTINUOUS
 10
0.83000
 20
38.42900
 30
 0
 11
0.82200
 21
38.37500
  0
LINE
  8
Kontur
 62
   7
 39
0.100
  6
CONTINUOUS
 10
0.82200
 20
38.37500
 30
 0
 11
0.81600
 21
38.32100
  0
LINE
  8
Kontur
 62
   7
 39
0.100
  6
CONTINUOUS
 10
0.81600
 20
38.32100
 30
 0
 11
0.81200
 21
38.26500
  0
LINE
  8
Kontur
 62
   7
 39
0.100
  6
CONTINUOUS
 10
0.81200
 20
38.26500
 30
 0
 11
0.80200
 21
38.08100
  0
LINE
  8
Kontur
 62
   7
 39
0.100
  6
CONTINUOUS
 10
0.80200
 20
38.08100
 30
 0
 11
0.80000
 21
38.02700
  0
LINE
  8
Kontur
 62
   7
 39
0.100
  6
CONTINUOUS
 10
0.80000
 20
38.02700
 30
 0
 11
0.80000
 21
37.97200
  0
LINE
  8
Kontur
 62
   7
 39
0.100
  6
CONTINUOUS
 10
0.80000
 20
37.97200
 30
 0
 11
0.80200
 21
37.91900
  0
LINE
  8
Kontur
 62
   7
 39
0.100
  6
CONTINUOUS
 10
0.80200
 20
37.91900
 30
 0
 11
0.81200
 21
37.73500
  0
LINE
  8
Kontur
 62
   7
 39
0.100
  6
CONTINUOUS
 10
0.81200
 20
37.73500
 30
 0
 11
0.81600
 21
37.68000
  0
LINE
  8
Kontur
 62
   7
 39
0.100
  6
CONTINUOUS
 10
0.81600
 20
37.68000
 30
 0
 11
0.82200
 21
37.62600
  0
LINE
  8
Kontur
 62
   7
 39
0.100
  6
CONTINUOUS
 10
0.82200
 20
37.62600
 30
 0
 11
0.83000
 21
37.57100
  0
LINE
  8
Kontur
 62
   7
 39
0.100
  6
CONTINUOUS
 10
0.83000
 20
37.57100
 30
 0
 11
0.86000
 21
37.39000
  0
LINE
  8
Kontur
 62
   7
 39
0.100
  6
CONTINUOUS
 10
0.86000
 20
37.39000
 30
 0
 11
0.87000
 21
37.33600
  0
LINE
  8
Kontur
 62
   7
 39
0.100
  6
CONTINUOUS
 10
0.87000
 20
37.33600
 30
 0
 11
0.88200
 21
37.28200
  0
LINE
  8
Kontur
 62
   7
 39
0.100
  6
CONTINUOUS
 10
0.88200
 20
37.28200
 30
 0
 11
0.89400
 21
37.23700
  0
LINE
  8
Kontur
 62
   7
 39
0.100
  6
CONTINUOUS
 10
0.89400
 20
37.23700
 30
 0
 11
0.94300
 21
37.05900
  0
LINE
  8
Kontur
 62
   7
 39
0.100
  6
CONTINUOUS
 10
0.94300
 20
37.05900
 30
 0
 11
0.95800
 21
37.00600
  0
LINE
  8
Kontur
 62
   7
 39
0.100
  6
CONTINUOUS
 10
0.95800
 20
37.00600
 30
 0
 11
0.97600
 21
36.95400
  0
LINE
  8
Kontur
 62
   7
 39
0.100
  6
CONTINUOUS
 10
0.97600
 20
36.95400
 30
 0
 11
0.99500
 21
36.90300
  0
LINE
  8
Kontur
 62
   7
 39
0.100
  6
CONTINUOUS
 10
0.99500
 20
36.90300
 30
 0
 11
1.06300
 21
36.73200
  0
LINE
  8
Kontur
 62
   7
 39
0.100
  6
CONTINUOUS
 10
1.06300
 20
36.73200
 30
 0
 11
1.08400
 21
36.68100
  0
LINE
  8
Kontur
 62
   7
 39
0.100
  6
CONTINUOUS
 10
1.08400
 20
36.68100
 30
 0
 11
1.10700
 21
36.63200
  0
LINE
  8
Kontur
 62
   7
 39
0.100
  6
CONTINUOUS
 10
1.10700
 20
36.63200
 30
 0
 11
1.13200
 21
36.58300
  0
LINE
  8
Kontur
 62
   7
 39
0.100
  6
CONTINUOUS
 10
1.13200
 20
36.58300
 30
 0
 11
1.21800
 21
36.42100
  0
LINE
  8
Kontur
 62
   7
 39
0.100
  6
CONTINUOUS
 10
1.21800
 20
36.42100
 30
 0
 11
1.24500
 21
36.37300
  0
LINE
  8
Kontur
 62
   7
 39
0.100
  6
CONTINUOUS
 10
1.24500
 20
36.37300
 30
 0
 11
1.27300
 21
36.32600
  0
LINE
  8
Kontur
 62
   7
 39
0.100
  6
CONTINUOUS
 10
1.27300
 20
36.32600
 30
 0
 11
1.30200
 21
36.28100
  0
LINE
  8
Kontur
 62
   7
 39
0.100
  6
CONTINUOUS
 10
1.30200
 20
36.28100
 30
 0
 11
1.40600
 21
36.12800
  0
LINE
  8
Kontur
 62
   7
 39
0.100
  6
CONTINUOUS
 10
1.40600
 20
36.12800
 30
 0
 11
1.43800
 21
36.08300
  0
LINE
  8
Kontur
 62
   7
 39
0.100
  6
CONTINUOUS
 10
1.43800
 20
36.08300
 30
 0
 11
1.47100
 21
36.03900
  0
LINE
  8
Kontur
 62
   7
 39
0.100
  6
CONTINUOUS
 10
1.47100
 20
36.03900
 30
 0
 11
1.50400
 21
36.00000
  0
LINE
  8
Kontur
 62
   7
 39
0.100
  6
CONTINUOUS
 10
1.50400
 20
36.00000
 30
 0
 11
1.62300
 21
35.86000
  0
LINE
  8
Kontur
 62
   7
 39
0.100
  6
CONTINUOUS
 10
1.62300
 20
35.86000
 30
 0
 11
1.65900
 21
35.81800
  0
LINE
  8
Kontur
 62
   7
 39
0.100
  6
CONTINUOUS
 10
1.65900
 20
35.81800
 30
 0
 11
1.69700
 21
35.77900
  0
LINE
  8
Kontur
 62
   7
 39
0.100
  6
CONTINUOUS
 10
1.69700
 20
35.77900
 30
 0
 11
1.73000
 21
35.74600
  0
LINE
  8
Kontur
 62
   7
 39
0.100
  6
CONTINUOUS
 10
1.73000
 20
35.74600
 30
 0
 11
1.86300
 21
35.61900
  0
LINE
  8
Kontur
 62
   7
 39
0.100
  6
CONTINUOUS
 10
1.86300
 20
35.61900
 30
 0
 11
1.90300
 21
35.58200
  0
LINE
  8
Kontur
 62
   7
 39
0.100
  6
CONTINUOUS
 10
1.90300
 20
35.58200
 30
 0
 11
1.94500
 21
35.54600
  0
LINE
  8
Kontur
 62
   7
 39
0.100
  6
CONTINUOUS
 10
1.94500
 20
35.54600
 30
 0
 11
1.99500
 21
35.50700
  0
LINE
  8
Kontur
 62
   7
 39
0.100
  6
CONTINUOUS
 10
1.99500
 20
35.50700
 30
 0
 11
2.14200
 21
35.39600
  0
LINE
  8
Kontur
 62
   7
 39
0.100
  6
CONTINUOUS
 10
2.14200
 20
35.39600
 30
 0
 11
2.18600
 21
35.36400
  0
LINE
  8
Kontur
 62
   7
 39
0.100
  6
CONTINUOUS
 10
2.18600
 20
35.36400
 30
 0
 11
2.23200
 21
35.33300
  0
LINE
  8
Kontur
 62
   7
 39
0.100
  6
CONTINUOUS
 10
2.23200
 20
35.33300
 30
 0
 11
2.27300
 21
35.30700
  0
LINE
  8
Kontur
 62
   7
 39
0.100
  6
CONTINUOUS
 10
2.27300
 20
35.30700
 30
 0
 11
2.43100
 21
35.21200
  0
LINE
  8
Kontur
 62
   7
 39
0.100
  6
CONTINUOUS
 10
2.43100
 20
35.21200
 30
 0
 11
2.47900
 21
35.18500
  0
LINE
  8
Kontur
 62
   7
 39
0.100
  6
CONTINUOUS
 10
2.47900
 20
35.18500
 30
 0
 11
2.52700
 21
35.16000
  0
LINE
  8
Kontur
 62
   7
 39
0.100
  6
CONTINUOUS
 10
2.52700
 20
35.16000
 30
 0
 11
2.57600
 21
35.13600
  0
LINE
  8
Kontur
 62
   7
 39
0.100
  6
CONTINUOUS
 10
2.57600
 20
35.13600
 30
 0
 11
2.74300
 21
35.05900
  0
LINE
  8
Kontur
 62
   7
 39
0.100
  6
CONTINUOUS
 10
2.74300
 20
35.05900
 30
 0
 11
2.79300
 21
35.03700
  0
LINE
  8
Kontur
 62
   7
 39
0.100
  6
CONTINUOUS
 10
2.79300
 20
35.03700
 30
 0
 11
2.84400
 21
35.01700
  0
LINE
  8
Kontur
 62
   7
 39
0.100
  6
CONTINUOUS
 10
2.84400
 20
35.01700
 30
 0
 11
2.88900
 21
35.00000
  0
LINE
  8
Kontur
 62
   7
 39
0.100
  6
CONTINUOUS
 10
2.88900
 20
35.00000
 30
 0
 11
3.06300
 21
34.94100
  0
LINE
  8
Kontur
 62
   7
 39
0.100
  6
CONTINUOUS
 10
3.06300
 20
34.94100
 30
 0
 11
3.11500
 21
34.92500
  0
LINE
  8
Kontur
 62
   7
 39
0.100
  6
CONTINUOUS
 10
3.11500
 20
34.92500
 30
 0
 11
3.16800
 21
34.91000
  0
LINE
  8
Kontur
 62
   7
 39
0.100
  6
CONTINUOUS
 10
3.16800
 20
34.91000
 30
 0
 11
3.22000
 21
34.89800
  0
LINE
  8
Kontur
 62
   7
 39
0.100
  6
CONTINUOUS
 10
3.22000
 20
34.89800
 30
 0
 11
3.40000
 21
34.85800
  0
LINE
  8
Kontur
 62
   7
 39
0.100
  6
CONTINUOUS
 10
3.40000
 20
34.85800
 30
 0
 11
3.45300
 21
34.84700
  0
LINE
  8
Kontur
 62
   7
 39
0.100
  6
CONTINUOUS
 10
3.45300
 20
34.84700
 30
 0
 11
3.50700
 21
34.83800
  0
LINE
  8
Kontur
 62
   7
 39
0.100
  6
CONTINUOUS
 10
3.50700
 20
34.83800
 30
 0
 11
3.56200
 21
34.83100
  0
LINE
  8
Kontur
 62
   7
 39
0.100
  6
CONTINUOUS
 10
3.56200
 20
34.83100
 30
 0
 11
3.74500
 21
34.81100
  0
LINE
  8
Kontur
 62
   7
 39
0.100
  6
CONTINUOUS
 10
3.74500
 20
34.81100
 30
 0
 11
3.80000
 21
34.80600
  0
LINE
  8
Kontur
 62
   7
 39
0.100
  6
CONTINUOUS
 10
3.80000
 20
34.80600
 30
 0
 11
3.85400
 21
34.80300
  0
LINE
  8
Kontur
 62
   7
 39
0.100
  6
CONTINUOUS
 10
3.85400
 20
34.80300
 30
 0
 11
3.90800
 21
34.80200
  0
LINE
  8
Kontur
 62
   7
 39
0.100
  6
CONTINUOUS
 10
3.90800
 20
34.80200
 30
 0
 11
4.09200
 21
34.80200
  0
LINE
  8
Kontur
 62
   7
 39
0.100
  6
CONTINUOUS
 10
4.09200
 20
34.80200
 30
 0
 11
4.14700
 21
34.80300
  0
CIRCLE
  8
Kontur
 62
   7
 39
0.100
  6
CONTINUOUS
 10
4.00000
 20
38.00000
 30
 0
 40
1.70000
  0
LINE
  8
Kontur
 62
   7
 39
0.100
  6
CONTINUOUS
 10
4.14700
 20
34.80300
 30
 0
 11
4.20100
 21
34.80600
  0
LINE
  8
Kontur
 62
   7
 39
0.100
  6
CONTINUOUS
 10
4.20100
 20
34.80600
 30
 0
 11
4.25500
 21
34.81100
  0
LINE
  8
Kontur
 62
   7
 39
0.100
  6
CONTINUOUS
 10
4.25500
 20
34.81100
 30
 0
 11
4.43800
 21
34.83100
  0
LINE
  8
Kontur
 62
   7
 39
0.100
  6
CONTINUOUS
 10
4.43800
 20
34.83100
 30
 0
 11
4.49200
 21
34.83800
  0
LINE
  8
Kontur
 62
   7
 39
0.100
  6
CONTINUOUS
 10
4.49200
 20
34.83800
 30
 0
 11
4.54600
 21
34.84700
  0
LINE
  8
Kontur
 62
   7
 39
0.100
  6
CONTINUOUS
 10
4.54600
 20
34.84700
 30
 0
 11
4.60000
 21
34.85800
  0
LINE
  8
Kontur
 62
   7
 39
0.100
  6
CONTINUOUS
 10
4.60000
 20
34.85800
 30
 0
 11
4.78000
 21
34.89800
  0
LINE
  8
Kontur
 62
   7
 39
0.100
  6
CONTINUOUS
 10
4.78000
 20
34.89800
 30
 0
 11
4.83400
 21
34.91100
  0
LINE
  8
Kontur
 62
   7
 39
0.100
  6
CONTINUOUS
 10
4.83400
 20
34.91100
 30
 0
 11
4.88600
 21
34.92500
  0
LINE
  8
Kontur
 62
   7
 39
0.100
  6
CONTINUOUS
 10
4.88600
 20
34.92500
 30
 0
 11
4.93700
 21
34.94100
  0
LINE
  8
Kontur
 62
   7
 39
0.100
  6
CONTINUOUS
 10
4.93700
 20
34.94100
 30
 0
 11
5.11100
 21
35.00000
  0
LINE
  8
Kontur
 62
   7
 39
0.100
  6
CONTINUOUS
 10
5.11100
 20
35.00000
 30
 0
 11
5.16200
 21
35.01900
  0
LINE
  8
Kontur
 62
   7
 39
0.100
  6
CONTINUOUS
 10
5.16200
 20
35.01900
 30
 0
 11
5.21300
 21
35.03900
  0
LINE
  8
Kontur
 62
   7
 39
0.100
  6
CONTINUOUS
 10
5.21300
 20
35.03900
 30
 0
 11
5.25700
 21
35.05900
  0
LINE
  8
Kontur
 62
   7
 39
0.100
  6
CONTINUOUS
 10
5.25700
 20
35.05900
 30
 0
 11
5.42400
 21
35.13600
  0
LINE
  8
Kontur
 62
   7
 39
0.100
  6
CONTINUOUS
 10
5.42400
 20
35.13600
 30
 0
 11
5.47300
 21
35.16000
  0
LINE
  8
Kontur
 62
   7
 39
0.100
  6
CONTINUOUS
 10
5.47300
 20
35.16000
 30
 0
 11
5.52200
 21
35.18500
  0
LINE
  8
Kontur
 62
   7
 39
0.100
  6
CONTINUOUS
 10
5.52200
 20
35.18500
 30
 0
 11
5.56900
 21
35.21200
  0
LINE
  8
Kontur
 62
   7
 39
0.100
  6
CONTINUOUS
 10
5.56900
 20
35.21200
 30
 0
 11
5.72700
 21
35.30700
  0
LINE
  8
Kontur
 62
   7
 39
0.100
  6
CONTINUOUS
 10
5.72700
 20
35.30700
 30
 0
 11
5.81900
 21
35.36700
  0
LINE
  8
Kontur
 62
   7
 39
0.100
  6
CONTINUOUS
 10
5.81900
 20
35.36700
 30
 0
 11
5.85800
 21
35.39600
  0
LINE
  8
Kontur
 62
   7
 39
0.100
  6
CONTINUOUS
 10
5.85800
 20
35.39600
 30
 0
 11
6.00500
 21
35.50700
  0
LINE
  8
Kontur
 62
   7
 39
0.100
  6
CONTINUOUS
 10
6.00500
 20
35.50700
 30
 0
 11
6.04800
 21
35.54100
  0
LINE
  8
Kontur
 62
   7
 39
0.100
  6
CONTINUOUS
 10
6.04800
 20
35.54100
 30
 0
 11
6.09000
 21
35.57600
  0
LINE
  8
Kontur
 62
   7
 39
0.100
  6
CONTINUOUS
 10
6.09000
 20
35.57600
 30
 0
 11
6.13700
 21
35.61900
  0
LINE
  8
Kontur
 62
   7
 39
0.100
  6
CONTINUOUS
 10
6.13700
 20
35.61900
 30
 0
 11
6.27000
 21
35.74600
  0
LINE
  8
Kontur
 62
   7
 39
0.100
  6
CONTINUOUS
 10
6.27000
 20
35.74600
 30
 0
 11
6.30900
 21
35.78500
  0
LINE
  8
Kontur
 62
   7
 39
0.100
  6
CONTINUOUS
 10
6.30900
 20
35.78500
 30
 0
 11
6.34600
 21
35.82500
  0
LINE
  8
Kontur
 62
   7
 39
0.100
  6
CONTINUOUS
 10
6.34600
 20
35.82500
 30
 0
 11
6.37700
 21
35.86000
  0
LINE
  8
Kontur
 62
   7
 39
0.100
  6
CONTINUOUS
 10
6.37700
 20
35.86000
 30
 0
 11
6.49600
 21
36.00000
  0
LINE
  8
Kontur
 62
   7
 39
0.100
  6
CONTINUOUS
 10
6.49600
 20
36.00000
 30
 0
 11
6.53100
 21
36.04200
  0
LINE
  8
Kontur
 62
   7
 39
0.100
  6
CONTINUOUS
 10
6.53100
 20
36.04200
 30
 0
 11
6.56400
 21
36.08600
  0
LINE
  8
Kontur
 62
   7
 39
0.100
  6
CONTINUOUS
 10
6.56400
 20
36.08600
 30
 0
 11
6.59400
 21
36.12800
  0
LINE
  8
Kontur
 62
   7
 39
0.100
  6
CONTINUOUS
 10
6.59400
 20
36.12800
 30
 0
 11
6.69800
 21
36.28100
  0
LINE
  8
Kontur
 62
   7
 39
0.100
  6
CONTINUOUS
 10
6.69800
 20
36.28100
 30
 0
 11
6.72700
 21
36.32700
  0
LINE
  8
Kontur
 62
   7
 39
0.100
  6
CONTINUOUS
 10
6.72700
 20
36.32700
 30
 0
 11
6.75600
 21
36.37400
  0
LINE
  8
Kontur
 62
   7
 39
0.100
  6
CONTINUOUS
 10
6.75600
 20
36.37400
 30
 0
 11
6.78200
 21
36.42100
  0
LINE
  8
Kontur
 62
   7
 39
0.100
  6
CONTINUOUS
 10
6.78200
 20
36.42100
 30
 0
 11
6.86800
 21
36.58300
  0
LINE
  8
Kontur
 62
   7
 39
0.100
  6
CONTINUOUS
 10
6.86800
 20
36.58300
 30
 0
 11
6.89300
 21
36.63200
  0
LINE
  8
Kontur
 62
   7
 39
0.100
  6
CONTINUOUS
 10
6.89300
 20
36.63200
 30
 0
 11
6.91600
 21
36.68100
  0
LINE
  8
Kontur
 62
   7
 39
0.100
  6
CONTINUOUS
 10
6.91600
 20
36.68100
 30
 0
 11
6.93700
 21
36.73200
  0
LINE
  8
Kontur
 62
   7
 39
0.100
  6
CONTINUOUS
 10
6.93700
 20
36.73200
 30
 0
 11
7.00500
 21
36.90300
  0
LINE
  8
Kontur
 62
   7
 39
0.100
  6
CONTINUOUS
 10
7.00500
 20
36.90300
 30
 0
 11
7.02400
 21
36.95400
  0
LINE
  8
Kontur
 62
   7
 39
0.100
  6
CONTINUOUS
 10
7.02400
 20
36.95400
 30
 0
 11
7.04200
 21
37.00600
  0
LINE
  8
Kontur
 62
   7
 39
0.100
  6
CONTINUOUS
 10
7.04200
 20
37.00600
 30
 0
 11
7.05700
 21
37.05900
  0
LINE
  8
Kontur
 62
   7
 39
0.100
  6
CONTINUOUS
 10
7.05700
 20
37.05900
 30
 0
 11
7.10600
 21
37.23700
  0
LINE
  8
Kontur
 62
   7
 39
0.100
  6
CONTINUOUS
 10
7.10600
 20
37.23700
 30
 0
 11
7.12000
 21
37.29000
  0
LINE
  8
Kontur
 62
   7
 39
0.100
  6
CONTINUOUS
 10
7.12000
 20
37.29000
 30
 0
 11
7.13100
 21
37.34300
  0
LINE
  8
Kontur
 62
   7
 39
0.100
  6
CONTINUOUS
 10
7.13100
 20
37.34300
 30
 0
 11
7.14000
 21
37.39000
  0
LINE
  8
Kontur
 62
   7
 39
0.100
  6
CONTINUOUS
 10
7.14000
 20
37.39000
 30
 0
 11
7.17000
 21
37.57100
  0
LINE
  8
Kontur
 62
   7
 39
0.100
  6
CONTINUOUS
 10
7.17000
 20
37.57100
 30
 0
 11
7.17800
 21
37.62500
  0
LINE
  8
Kontur
 62
   7
 39
0.100
  6
CONTINUOUS
 10
7.17800
 20
37.62500
 30
 0
 11
7.18400
 21
37.67900
  0
LINE
  8
Kontur
 62
   7
 39
0.100
  6
CONTINUOUS
 10
7.18400
 20
37.67900
 30
 0
 11
7.18800
 21
37.73500
  0
LINE
  8
Kontur
 62
   7
 39
0.100
  6
CONTINUOUS
 10
7.18800
 20
37.73500
 30
 0
 11
7.19800
 21
37.91900
  0
LINE
  8
Kontur
 62
   7
 39
0.100
  6
CONTINUOUS
 10
7.19800
 20
37.91900
 30
 0
 11
7.20000
 21
37.97300
  0
LINE
  8
Kontur
 62
   7
 39
0.100
  6
CONTINUOUS
 10
7.20000
 20
37.97300
 30
 0
 11
7.20000
 21
38.02800
  0
LINE
  8
Kontur
 62
   7
 39
0.100
  6
CONTINUOUS
 10
7.20000
 20
38.02800
 30
 0
 11
7.19800
 21
38.08100
  0
LINE
  8
Kontur
 62
   7
 39
0.100
  6
CONTINUOUS
 10
7.19800
 20
38.08100
 30
 0
 11
7.18800
 21
38.26500
  0
LINE
  8
Kontur
 62
   7
 39
0.100
  6
CONTINUOUS
 10
7.18800
 20
38.26500
 30
 0
 11
7.18400
 21
38.32000
  0
LINE
  8
Kontur
 62
   7
 39
0.100
  6
CONTINUOUS
 10
7.18400
 20
38.32000
 30
 0
 11
7.17800
 21
38.37400
  0
LINE
  8
Kontur
 62
   7
 39
0.100
  6
CONTINUOUS
 10
7.17800
 20
38.37400
 30
 0
 11
7.17000
 21
38.42900
  0
LINE
  8
Kontur
 62
   7
 39
0.100
  6
CONTINUOUS
 10
7.17000
 20
38.42900
 30
 0
 11
7.14000
 21
38.61000
  0
LINE
  8
Kontur
 62
   7
 39
0.100
  6
CONTINUOUS
 10
7.14000
 20
38.61000
 30
 0
 11
7.13000
 21
38.66400
  0
LINE
  8
Kontur
 62
   7
 39
0.100
  6
CONTINUOUS
 10
7.13000
 20
38.66400
 30
 0
 11
7.11800
 21
38.71800
  0
LINE
  8
Kontur
 62
   7
 39
0.100
  6
CONTINUOUS
 10
7.11800
 20
38.71800
 30
 0
 11
7.10600
 21
38.76300
  0
LINE
  8
Kontur
 62
   7
 39
0.100
  6
CONTINUOUS
 10
7.10600
 20
38.76300
 30
 0
 11
7.05700
 21
38.94100
  0
LINE
  8
Kontur
 62
   7
 39
0.100
  6
CONTINUOUS
 10
7.05700
 20
38.94100
 30
 0
 11
7.04200
 21
38.99400
  0
LINE
  8
Kontur
 62
   7
 39
0.100
  6
CONTINUOUS
 10
7.04200
 20
38.99400
 30
 0
 11
7.02400
 21
39.04600
  0
LINE
  8
Kontur
 62
   7
 39
0.100
  6
CONTINUOUS
 10
7.02400
 20
39.04600
 30
 0
 11
7.00500
 21
39.09700
  0
LINE
  8
Kontur
 62
   7
 39
0.100
  6
CONTINUOUS
 10
7.00500
 20
39.09700
 30
 0
 11
6.93700
 21
39.26800
  0
LINE
  8
Kontur
 62
   7
 39
0.100
  6
CONTINUOUS
 10
6.93700
 20
39.26800
 30
 0
 11
6.91600
 21
39.31900
  0
LINE
  8
Kontur
 62
   7
 39
0.100
  6
CONTINUOUS
 10
6.91600
 20
39.31900
 30
 0
 11
6.89300
 21
39.36800
  0
LINE
  8
Kontur
 62
   7
 39
0.100
  6
CONTINUOUS
 10
6.89300
 20
39.36800
 30
 0
 11
6.86800
 21
39.41700
  0
LINE
  8
Kontur
 62
   7
 39
0.100
  6
CONTINUOUS
 10
6.86800
 20
39.41700
 30
 0
 11
6.78200
 21
39.57900
  0
LINE
  8
Kontur
 62
   7
 39
0.100
  6
CONTINUOUS
 10
6.78200
 20
39.57900
 30
 0
 11
6.75500
 21
39.62700
  0
LINE
  8
Kontur
 62
   7
 39
0.100
  6
CONTINUOUS
 10
6.75500
 20
39.62700
 30
 0
 11
6.72700
 21
39.67400
  0
LINE
  8
Kontur
 62
   7
 39
0.100
  6
CONTINUOUS
 10
6.72700
 20
39.67400
 30
 0
 11
6.69800
 21
39.71900
  0
LINE
  8
Kontur
 62
   7
 39
0.100
  6
CONTINUOUS
 10
6.69800
 20
39.71900
 30
 0
 11
6.59400
 21
39.87200
  0
LINE
  8
Kontur
 62
   7
 39
0.100
  6
CONTINUOUS
 10
6.59400
 20
39.87200
 30
 0
 11
6.56200
 21
39.91700
  0
LINE
  8
Kontur
 62
   7
 39
0.100
  6
CONTINUOUS
 10
6.56200
 20
39.91700
 30
 0
 11
6.52900
 21
39.96100
  0
LINE
  8
Kontur
 62
   7
 39
0.100
  6
CONTINUOUS
 10
6.52900
 20
39.96100
 30
 0
 11
6.49600
 21
40.00000
  0
LINE
  8
Kontur
 62
   7
 39
0.100
  6
CONTINUOUS
 10
6.49600
 20
40.00000
 30
 0
 11
6.37700
 21
40.14000
  0
LINE
  8
Kontur
 62
   7
 39
0.100
  6
CONTINUOUS
 10
6.37700
 20
40.14000
 30
 0
 11
6.34100
 21
40.18200
  0
LINE
  8
Kontur
 62
   7
 39
0.100
  6
CONTINUOUS
 10
6.34100
 20
40.18200
 30
 0
 11
6.30300
 21
40.22100
  0
LINE
  8
Kontur
 62
   7
 39
0.100
  6
CONTINUOUS
 10
6.30300
 20
40.22100
 30
 0
 11
6.27000
 21
40.25400
  0
LINE
  8
Kontur
 62
   7
 39
0.100
  6
CONTINUOUS
 10
6.27000
 20
40.25400
 30
 0
 11
6.13700
 21
40.38100
  0
LINE
  8
Kontur
 62
   7
 39
0.100
  6
CONTINUOUS
 10
6.13700
 20
40.38100
 30
 0
 11
6.09700
 21
40.41800
  0
LINE
  8
Kontur
 62
   7
 39
0.100
  6
CONTINUOUS
 10
6.09700
 20
40.41800
 30
 0
 11
6.05500
 21
40.45400
  0
LINE
  8
Kontur
 62
   7
 39
0.100
  6
CONTINUOUS
 10
6.05500
 20
40.45400
 30
 0
 11
6.00500
 21
40.49300
  0
LINE
  8
Kontur
 62
   7
 39
0.100
  6
CONTINUOUS
 10
6.00500
 20
40.49300
 30
 0
 11
5.85800
 21
40.60400
  0
LINE
  8
Kontur
 62
   7
 39
0.100
  6
CONTINUOUS
 10
5.85800
 20
40.60400
 30
 0
 11
5.81400
 21
40.63600
  0
LINE
  8
Kontur
 62
   7
 39
0.100
  6
CONTINUOUS
 10
5.81400
 20
40.63600
 30
 0
 11
5.76800
 21
40.66700
  0
LINE
  8
Kontur
 62
   7
 39
0.100
  6
CONTINUOUS
 10
5.76800
 20
40.66700
 30
 0
 11
5.72700
 21
40.69300
  0
LINE
  8
Kontur
 62
   7
 39
0.100
  6
CONTINUOUS
 10
5.72700
 20
40.69300
 30
 0
 11
5.56900
 21
40.78800
  0
LINE
  8
Kontur
 62
   7
 39
0.100
  6
CONTINUOUS
 10
5.56900
 20
40.78800
 30
 0
 11
5.52100
 21
40.81500
  0
LINE
  8
Kontur
 62
   7
 39
0.100
  6
CONTINUOUS
 10
5.52100
 20
40.81500
 30
 0
 11
5.47300
 21
40.84000
  0
LINE
  8
Kontur
 62
   7
 39
0.100
  6
CONTINUOUS
 10
5.47300
 20
40.84000
 30
 0
 11
5.42400
 21
40.86400
  0
LINE
  8
Kontur
 62
   7
 39
0.100
  6
CONTINUOUS
 10
5.42400
 20
40.86400
 30
 0
 11
5.25700
 21
40.94100
  0
LINE
  8
Kontur
 62
   7
 39
0.100
  6
CONTINUOUS
 10
5.25700
 20
40.94100
 30
 0
 11
5.20700
 21
40.96300
  0
LINE
  8
Kontur
 62
   7
 39
0.100
  6
CONTINUOUS
 10
5.20700
 20
40.96300
 30
 0
 11
5.15600
 21
40.98300
  0
LINE
  8
Kontur
 62
   7
 39
0.100
  6
CONTINUOUS
 10
5.15600
 20
40.98300
 30
 0
 11
5.11100
 21
41.00000
  0
LINE
  8
Kontur
 62
   7
 39
0.100
  6
CONTINUOUS
 10
5.11100
 20
41.00000
 30
 0
 11
4.93700
 21
41.05900
  0
LINE
  8
Kontur
 62
   7
 39
0.100
  6
CONTINUOUS
 10
4.93700
 20
41.05900
 30
 0
 11
4.88500
 21
41.07500
  0
LINE
  8
Kontur
 62
   7
 39
0.100
  6
CONTINUOUS
 10
4.88500
 20
41.07500
 30
 0
 11
4.83200
 21
41.09000
  0
LINE
  8
Kontur
 62
   7
 39
0.100
  6
CONTINUOUS
 10
4.83200
 20
41.09000
 30
 0
 11
4.78000
 21
41.10200
  0
LINE
  8
Kontur
 62
   7
 39
0.100
  6
CONTINUOUS
 10
4.78000
 20
41.10200
 30
 0
 11
4.60000
 21
41.14200
  0
LINE
  8
Kontur
 62
   7
 39
0.100
  6
CONTINUOUS
 10
4.60000
 20
41.14200
 30
 0
 11
4.54700
 21
41.15300
  0
LINE
  8
Kontur
 62
   7
 39
0.100
  6
CONTINUOUS
 10
4.54700
 20
41.15300
 30
 0
 11
4.49300
 21
41.16200
  0
LINE
  8
Kontur
 62
   7
 39
0.100
  6
CONTINUOUS
 10
4.49300
 20
41.16200
 30
 0
 11
4.43800
 21
41.16900
  0
LINE
  8
Kontur
 62
   7
 39
0.100
  6
CONTINUOUS
 10
4.43800
 20
41.16900
 30
 0
 11
4.25500
 21
41.18900
  0
LINE
  8
Kontur
 62
   7
 39
0.100
  6
CONTINUOUS
 10
4.25500
 20
41.18900
 30
 0
 11
4.20000
 21
41.19400
  0
LINE
  8
Kontur
 62
   7
 39
0.100
  6
CONTINUOUS
 10
4.20000
 20
41.19400
 30
 0
 11
4.14600
 21
41.19700
  0
LINE
  8
Kontur
 62
   7
 39
0.100
  6
CONTINUOUS
 10
4.14600
 20
41.19700
 30
 0
 11
4.09200
 21
41.19800
  0
LINE
  8
Kontur
 62
   7
 39
0.100
  6
CONTINUOUS
 10
4.09200
 20
41.19800
 30
 0
 11
3.90800
 21
41.19800
  0
LINE
  8
Kontur
 62
   7
 39
0.100
  6
CONTINUOUS
 10
3.90800
 20
41.19800
 30
 0
 11
3.85300
 21
41.19700
  0
LINE
  8
Kontur
 62
   7
 39
0.100
  6
CONTINUOUS
 10
3.85300
 20
41.19700
 30
 0
 11
3.79900
 21
41.19400
  0
LINE
  8
Kontur
 62
   7
 39
0.100
  6
CONTINUOUS
 10
3.79900
 20
41.19400
 30
 0
 11
3.74500
 21
41.18900
  0
LINE
  8
Kontur
 62
   7
 39
0.100
  6
CONTINUOUS
 10
3.74500
 20
41.18900
 30
 0
 11
3.56200
 21
41.16900
  0
LINE
  8
Kontur
 62
   7
 39
0.100
  6
CONTINUOUS
 10
3.56200
 20
41.16900
 30
 0
 11
3.50800
 21
41.16200
  0
LINE
  8
Kontur
 62
   7
 39
0.100
  6
CONTINUOUS
 10
3.50800
 20
41.16200
 30
 0
 11
3.45400
 21
41.15300
  0
LINE
  8
Kontur
 62
   7
 39
0.100
  6
CONTINUOUS
 10
3.45400
 20
41.15300
 30
 0
 11
3.40000
 21
41.14200
  0
LINE
  8
Kontur
 62
   7
 39
0.100
  6
CONTINUOUS
 10
3.40000
 20
41.14200
 30
 0
 11
3.22000
 21
41.10200
  0
LINE
  8
Kontur
 62
   7
 39
0.100
  6
CONTINUOUS
 10
3.22000
 20
41.10200
 30
 0
 11
3.16600
 21
41.08900
  0
LINE
  8
Kontur
 62
   7
 39
0.100
  6
CONTINUOUS
 10
3.16600
 20
41.08900
 30
 0
 11
3.11400
 21
41.07500
  0
LINE
  8
Kontur
 62
   7
 39
0.100
  6
CONTINUOUS
 10
3.11400
 20
41.07500
 30
 0
 11
3.06300
 21
41.05900
  0
LINE
  8
Kontur
 62
   7
 39
0.100
  6
CONTINUOUS
 10
3.06300
 20
41.05900
 30
 0
 11
2.88900
 21
41.00000
  0
LINE
  8
Kontur
 62
   7
 39
0.100
  6
CONTINUOUS
 10
2.88900
 20
41.00000
 30
 0
 11
2.83800
 21
40.98100
  0
LINE
  8
Kontur
 62
   7
 39
0.100
  6
CONTINUOUS
 10
2.83800
 20
40.98100
 30
 0
 11
2.78700
 21
40.96100
  0
LINE
  8
Kontur
 62
   7
 39
0.100
  6
CONTINUOUS
 10
2.78700
 20
40.96100
 30
 0
 11
2.74300
 21
40.94100
  0
LINE
  8
Kontur
 62
   7
 39
0.100
  6
CONTINUOUS
 10
2.74300
 20
40.94100
 30
 0
 11
2.57600
 21
40.86400
  0
LINE
  8
Kontur
 62
   7
 39
0.100
  6
CONTINUOUS
 10
2.57600
 20
40.86400
 30
 0
 11
2.52700
 21
40.84000
  0
LINE
  8
Kontur
 62
   7
 39
0.100
  6
CONTINUOUS
 10
2.52700
 20
40.84000
 30
 0
 11
2.47800
 21
40.81500
  0
LINE
  8
Kontur
 62
   7
 39
0.100
  6
CONTINUOUS
 10
2.47800
 20
40.81500
 30
 0
 11
2.43100
 21
40.78800
  0
LINE
  8
Kontur
 62
   7
 39
0.100
  6
CONTINUOUS
 10
2.43100
 20
40.78800
 30
 0
 11
2.27300
 21
40.69300
  0
LINE
  8
Kontur
 62
   7
 39
0.100
  6
CONTINUOUS
 10
2.27300
 20
40.69300
 30
 0
 11
2.18100
 21
40.63300
  0
LINE
  8
Kontur
 62
   7
 39
0.100
  6
CONTINUOUS
 10
2.18100
 20
40.63300
 30
 0
 11
2.14200
 21
40.60400
  0
LINE
  8
Kontur
 62
   7
 39
0.100
  6
CONTINUOUS
 10
2.14200
 20
40.60400
 30
 0
 11
1.99500
 21
40.49300
  0
LINE
  8
Kontur
 62
   7
 39
0.100
  6
CONTINUOUS
 10
1.99500
 20
40.49300
 30
 0
 11
1.95200
 21
40.45900
  0
LINE
  8
Kontur
 62
   7
 39
0.100
  6
CONTINUOUS
 10
1.95200
 20
40.45900
 30
 0
 11
1.91000
 21
40.42400
  0
LINE
  8
Kontur
 62
   7
 39
0.100
  6
CONTINUOUS
 10
1.91000
 20
40.42400
 30
 0
 11
1.86300
 21
40.38100
  0
LINE
  8
Kontur
 62
   7
 39
0.100
  6
CONTINUOUS
 10
1.86300
 20
40.38100
 30
 0
 11
1.73000
 21
40.25400
  0
LINE
  8
Kontur
 62
   7
 39
0.100
  6
CONTINUOUS
 10
1.73000
 20
40.25400
 30
 0
 11
1.69100
 21
40.21500
  0
LINE
  8
Kontur
 62
   7
 39
0.100
  6
CONTINUOUS
 10
1.69100
 20
40.21500
 30
 0
 11
1.65400
 21
40.17500
  0
LINE
  8
Kontur
 62
   7
 39
0.100
  6
CONTINUOUS
 10
1.65400
 20
40.17500
 30
 0
 11
1.62300
 21
40.14000
  0
LINE
  8
Kontur
 62
   7
 39
0.100
  6
CONTINUOUS
 10
1.62300
 20
40.14000
 30
 0
 11
1.50400
 21
40.00000
  0
LINE
  8
Kontur
 62
   7
 39
0.100
  6
CONTINUOUS
 10
1.50400
 20
40.00000
 30
 0
 11
1.46900
 21
39.95800
  0
LINE
  8
Kontur
 62
   7
 39
0.100
  6
CONTINUOUS
 10
1.46900
 20
39.95800
 30
 0
 11
1.43600
 21
39.91400
  0
LINE
  8
Kontur
 62
   7
 39
0.100
  6
CONTINUOUS
 10
1.43600
 20
39.91400
 30
 0
 11
1.40600
 21
39.87200
  0
LINE
  8
Kontur
 62
   7
 39
0.100
  6
CONTINUOUS
 10
1.40600
 20
39.87200
 30
 0
 11
1.30200
 21
39.71900
  0
LINE
  8
Kontur
 62
   7
 39
0.100
  6
CONTINUOUS
 10
1.30200
 20
39.71900
 30
 0
 11
1.27300
 21
39.67300
  0
LINE
  8
Kontur
 62
   7
 39
0.100
  6
CONTINUOUS
 10
1.27300
 20
39.67300
 30
 0
 11
1.24400
 21
39.62600
  0
LINE
  8
Kontur
 62
   7
 39
0.100
  6
CONTINUOUS
 10
1.24400
 20
39.62600
 30
 0
 11
1.21800
 21
39.57900
  0
LINE
  8
Kontur
 62
   7
 39
0.100
  6
CONTINUOUS
 10
1.21800
 20
39.57900
 30
 0
 11
1.13200
 21
39.41700
  0
LINE
  8
Kontur
 62
   7
 39
0.100
  6
CONTINUOUS
 10
1.13200
 20
39.41700
 30
 0
 11
1.10700
 21
39.36800
  0
LINE
  8
Kontur
 62
   7
 39
0.100
  6
CONTINUOUS
 10
1.10700
 20
39.36800
 30
 0
 11
1.08400
 21
39.31900
  0
LINE
  8
Kontur
 62
   7
 39
0.100
  6
CONTINUOUS
 10
1.08400
 20
39.31900
 30
 0
 11
1.06300
 21
39.26800
  0
LINE
  8
Kontur
 62
   7
 39
0.100
  6
CONTINUOUS
 10
1.06300
 20
39.26800
 30
 0
 11
0.99500
 21
39.09700
  0
LINE
  8
Kontur
 62
   7
 39
0.100
  6
CONTINUOUS
 10
0.99500
 20
39.09700
 30
 0
 11
0.97600
 21
39.04600
  0
LINE
  8
Kontur
 62
   7
 39
0.100
  6
CONTINUOUS
 10
0.97600
 20
39.04600
 30
 0
 11
0.95800
 21
38.99400
  0
LINE
  8
Kontur
 62
   7
 39
0.100
  6
CONTINUOUS
 10
0.95800
 20
38.99400
 30
 0
 11
0.94300
 21
38.94100
  0
LINE
  8
Kontur
 62
   7
 39
0.100
  6
CONTINUOUS
 10
0.94300
 20
38.94100
 30
 0
 11
0.89400
 21
38.76300
  0
LINE
  8
Kontur
 62
   7
 39
0.100
  6
CONTINUOUS
 10
0.89400
 20
38.76300
 30
 0
 11
0.88000
 21
38.71000
  0
LINE
  8
Kontur
 62
   7
 39
0.100
  6
CONTINUOUS
 10
0.88000
 20
38.71000
 30
 0
 11
0.86900
 21
38.65700
  0
LINE
  8
Kontur
 62
   7
 39
0.100
  6
CONTINUOUS
 10
0.86900
 20
38.65700
 30
 0
 11
0.86000
 21
38.61000
  0
LINE
  8
Kontur
 62
   7
 39
0.100
  6
CONTINUOUS
 10
0.86000
 20
38.61000
 30
 0
 11
0.83000
 21
38.42900
  0
LINE
  8
Kontur
 62
   7
 39
0.100
  6
CONTINUOUS
 10
0.83000
 20
38.42900
 30
 0
 11
0.82200
 21
38.37500
  0
LINE
  8
Kontur
 62
   7
 39
0.100
  6
CONTINUOUS
 10
0.82200
 20
38.37500
 30
 0
 11
0.81600
 21
38.32100
  0
LINE
  8
Kontur
 62
   7
 39
0.100
  6
CONTINUOUS
 10
0.81600
 20
38.32100
 30
 0
 11
0.81200
 21
38.26500
  0
LINE
  8
Kontur
 62
   7
 39
0.100
  6
CONTINUOUS
 10
0.81200
 20
38.26500
 30
 0
 11
0.80200
 21
38.08100
  0
LINE
  8
Kontur
 62
   7
 39
0.100
  6
CONTINUOUS
 10
0.80200
 20
38.08100
 30
 0
 11
0.80000
 21
38.02700
  0
LINE
  8
Kontur
 62
   7
 39
0.100
  6
CONTINUOUS
 10
0.80000
 20
38.02700
 30
 0
 11
0.80000
 21
37.97200
  0
LINE
  8
Kontur
 62
   7
 39
0.100
  6
CONTINUOUS
 10
0.80000
 20
37.97200
 30
 0
 11
0.80200
 21
37.91900
  0
LINE
  8
Kontur
 62
   7
 39
0.100
  6
CONTINUOUS
 10
0.80200
 20
37.91900
 30
 0
 11
0.81200
 21
37.73500
  0
LINE
  8
Kontur
 62
   7
 39
0.100
  6
CONTINUOUS
 10
0.81200
 20
37.73500
 30
 0
 11
0.81600
 21
37.68000
  0
LINE
  8
Kontur
 62
   7
 39
0.100
  6
CONTINUOUS
 10
0.81600
 20
37.68000
 30
 0
 11
0.82200
 21
37.62600
  0
LINE
  8
Kontur
 62
   7
 39
0.100
  6
CONTINUOUS
 10
0.82200
 20
37.62600
 30
 0
 11
0.83000
 21
37.57100
  0
LINE
  8
Kontur
 62
   7
 39
0.100
  6
CONTINUOUS
 10
0.83000
 20
37.57100
 30
 0
 11
0.86000
 21
37.39000
  0
LINE
  8
Kontur
 62
   7
 39
0.100
  6
CONTINUOUS
 10
0.86000
 20
37.39000
 30
 0
 11
0.87000
 21
37.33600
  0
LINE
  8
Kontur
 62
   7
 39
0.100
  6
CONTINUOUS
 10
0.87000
 20
37.33600
 30
 0
 11
0.88200
 21
37.28200
  0
LINE
  8
Kontur
 62
   7
 39
0.100
  6
CONTINUOUS
 10
0.88200
 20
37.28200
 30
 0
 11
0.89400
 21
37.23700
  0
LINE
  8
Kontur
 62
   7
 39
0.100
  6
CONTINUOUS
 10
0.89400
 20
37.23700
 30
 0
 11
0.94300
 21
37.05900
  0
LINE
  8
Kontur
 62
   7
 39
0.100
  6
CONTINUOUS
 10
0.94300
 20
37.05900
 30
 0
 11
0.95800
 21
37.00600
  0
LINE
  8
Kontur
 62
   7
 39
0.100
  6
CONTINUOUS
 10
0.95800
 20
37.00600
 30
 0
 11
0.97600
 21
36.95400
  0
LINE
  8
Kontur
 62
   7
 39
0.100
  6
CONTINUOUS
 10
0.97600
 20
36.95400
 30
 0
 11
0.99500
 21
36.90300
  0
LINE
  8
Kontur
 62
   7
 39
0.100
  6
CONTINUOUS
 10
0.99500
 20
36.90300
 30
 0
 11
1.06300
 21
36.73200
  0
LINE
  8
Kontur
 62
   7
 39
0.100
  6
CONTINUOUS
 10
1.06300
 20
36.73200
 30
 0
 11
1.08400
 21
36.68100
  0
LINE
  8
Kontur
 62
   7
 39
0.100
  6
CONTINUOUS
 10
1.08400
 20
36.68100
 30
 0
 11
1.10700
 21
36.63200
  0
LINE
  8
Kontur
 62
   7
 39
0.100
  6
CONTINUOUS
 10
1.10700
 20
36.63200
 30
 0
 11
1.13200
 21
36.58300
  0
LINE
  8
Kontur
 62
   7
 39
0.100
  6
CONTINUOUS
 10
1.13200
 20
36.58300
 30
 0
 11
1.21800
 21
36.42100
  0
LINE
  8
Kontur
 62
   7
 39
0.100
  6
CONTINUOUS
 10
1.21800
 20
36.42100
 30
 0
 11
1.24500
 21
36.37300
  0
LINE
  8
Kontur
 62
   7
 39
0.100
  6
CONTINUOUS
 10
1.24500
 20
36.37300
 30
 0
 11
1.27300
 21
36.32600
  0
LINE
  8
Kontur
 62
   7
 39
0.100
  6
CONTINUOUS
 10
1.27300
 20
36.32600
 30
 0
 11
1.30200
 21
36.28100
  0
LINE
  8
Kontur
 62
   7
 39
0.100
  6
CONTINUOUS
 10
1.30200
 20
36.28100
 30
 0
 11
1.40600
 21
36.12800
  0
LINE
  8
Kontur
 62
   7
 39
0.100
  6
CONTINUOUS
 10
1.40600
 20
36.12800
 30
 0
 11
1.43800
 21
36.08300
  0
LINE
  8
Kontur
 62
   7
 39
0.100
  6
CONTINUOUS
 10
1.43800
 20
36.08300
 30
 0
 11
1.47100
 21
36.03900
  0
LINE
  8
Kontur
 62
   7
 39
0.100
  6
CONTINUOUS
 10
1.47100
 20
36.03900
 30
 0
 11
1.50400
 21
36.00000
  0
LINE
  8
Kontur
 62
   7
 39
0.100
  6
CONTINUOUS
 10
1.50400
 20
36.00000
 30
 0
 11
1.62300
 21
35.86000
  0
LINE
  8
Kontur
 62
   7
 39
0.100
  6
CONTINUOUS
 10
1.62300
 20
35.86000
 30
 0
 11
1.65900
 21
35.81800
  0
LINE
  8
Kontur
 62
   7
 39
0.100
  6
CONTINUOUS
 10
1.65900
 20
35.81800
 30
 0
 11
1.69700
 21
35.77900
  0
LINE
  8
Kontur
 62
   7
 39
0.100
  6
CONTINUOUS
 10
1.69700
 20
35.77900
 30
 0
 11
1.73000
 21
35.74600
  0
LINE
  8
Kontur
 62
   7
 39
0.100
  6
CONTINUOUS
 10
1.73000
 20
35.74600
 30
 0
 11
1.86300
 21
35.61900
  0
LINE
  8
Kontur
 62
   7
 39
0.100
  6
CONTINUOUS
 10
1.86300
 20
35.61900
 30
 0
 11
1.90300
 21
35.58200
  0
LINE
  8
Kontur
 62
   7
 39
0.100
  6
CONTINUOUS
 10
1.90300
 20
35.58200
 30
 0
 11
1.94500
 21
35.54600
  0
LINE
  8
Kontur
 62
   7
 39
0.100
  6
CONTINUOUS
 10
1.94500
 20
35.54600
 30
 0
 11
1.99500
 21
35.50700
  0
LINE
  8
Kontur
 62
   7
 39
0.100
  6
CONTINUOUS
 10
1.99500
 20
35.50700
 30
 0
 11
2.14200
 21
35.39600
  0
LINE
  8
Kontur
 62
   7
 39
0.100
  6
CONTINUOUS
 10
2.14200
 20
35.39600
 30
 0
 11
2.18600
 21
35.36400
  0
LINE
  8
Kontur
 62
   7
 39
0.100
  6
CONTINUOUS
 10
2.18600
 20
35.36400
 30
 0
 11
2.23200
 21
35.33300
  0
LINE
  8
Kontur
 62
   7
 39
0.100
  6
CONTINUOUS
 10
2.23200
 20
35.33300
 30
 0
 11
2.27300
 21
35.30700
  0
LINE
  8
Kontur
 62
   7
 39
0.100
  6
CONTINUOUS
 10
2.27300
 20
35.30700
 30
 0
 11
2.43100
 21
35.21200
  0
LINE
  8
Kontur
 62
   7
 39
0.100
  6
CONTINUOUS
 10
2.43100
 20
35.21200
 30
 0
 11
2.47900
 21
35.18500
  0
LINE
  8
Kontur
 62
   7
 39
0.100
  6
CONTINUOUS
 10
2.47900
 20
35.18500
 30
 0
 11
2.52700
 21
35.16000
  0
LINE
  8
Kontur
 62
   7
 39
0.100
  6
CONTINUOUS
 10
2.52700
 20
35.16000
 30
 0
 11
2.57600
 21
35.13600
  0
LINE
  8
Kontur
 62
   7
 39
0.100
  6
CONTINUOUS
 10
2.57600
 20
35.13600
 30
 0
 11
2.74300
 21
35.05900
  0
LINE
  8
Kontur
 62
   7
 39
0.100
  6
CONTINUOUS
 10
2.74300
 20
35.05900
 30
 0
 11
2.79300
 21
35.03700
  0
LINE
  8
Kontur
 62
   7
 39
0.100
  6
CONTINUOUS
 10
2.79300
 20
35.03700
 30
 0
 11
2.84400
 21
35.01700
  0
LINE
  8
Kontur
 62
   7
 39
0.100
  6
CONTINUOUS
 10
2.84400
 20
35.01700
 30
 0
 11
2.88900
 21
35.00000
  0
LINE
  8
Kontur
 62
   7
 39
0.100
  6
CONTINUOUS
 10
2.88900
 20
35.00000
 30
 0
 11
3.06300
 21
34.94100
  0
LINE
  8
Kontur
 62
   7
 39
0.100
  6
CONTINUOUS
 10
3.06300
 20
34.94100
 30
 0
 11
3.11500
 21
34.92500
  0
LINE
  8
Kontur
 62
   7
 39
0.100
  6
CONTINUOUS
 10
3.11500
 20
34.92500
 30
 0
 11
3.16800
 21
34.91000
  0
LINE
  8
Kontur
 62
   7
 39
0.100
  6
CONTINUOUS
 10
3.16800
 20
34.91000
 30
 0
 11
3.22000
 21
34.89800
  0
LINE
  8
Kontur
 62
   7
 39
0.100
  6
CONTINUOUS
 10
3.22000
 20
34.89800
 30
 0
 11
3.40000
 21
34.85800
  0
LINE
  8
Kontur
 62
   7
 39
0.100
  6
CONTINUOUS
 10
3.40000
 20
34.85800
 30
 0
 11
3.45300
 21
34.84700
  0
LINE
  8
Kontur
 62
   7
 39
0.100
  6
CONTINUOUS
 10
3.45300
 20
34.84700
 30
 0
 11
3.50700
 21
34.83800
  0
LINE
  8
Kontur
 62
   7
 39
0.100
  6
CONTINUOUS
 10
3.50700
 20
34.83800
 30
 0
 11
3.56200
 21
34.83100
  0
LINE
  8
Kontur
 62
   7
 39
0.100
  6
CONTINUOUS
 10
3.56200
 20
34.83100
 30
 0
 11
3.74500
 21
34.81100
  0
LINE
  8
Kontur
 62
   7
 39
0.100
  6
CONTINUOUS
 10
3.74500
 20
34.81100
 30
 0
 11
3.80000
 21
34.80600
  0
LINE
  8
Kontur
 62
   7
 39
0.100
  6
CONTINUOUS
 10
3.80000
 20
34.80600
 30
 0
 11
3.85400
 21
34.80300
  0
LINE
  8
Kontur
 62
   7
 39
0.100
  6
CONTINUOUS
 10
3.85400
 20
34.80300
 30
 0
 11
3.90800
 21
34.80200
  0
LINE
  8
Kontur
 62
   7
 39
0.100
  6
CONTINUOUS
 10
3.90800
 20
34.80200
 30
 0
 11
4.09200
 21
34.80200
  0
LINE
  8
Kontur
 62
   7
 39
0.100
  6
CONTINUOUS
 10
4.09200
 20
34.80200
 30
 0
 11
4.14700
 21
34.80300
  0
CIRCLE
  8
Kontur
 62
   7
 39
0.100
  6
CONTINUOUS
 10
4.00000
 20
38.00000
 30
 0
 40
1.70000
  0
LINE
  8
Kontur
 62
   7
 39
0.100
  6
CONTINUOUS
 10
160.14700
 20
0.80300
 30
 0
 11
160.20100
 21
0.80600
  0
LINE
  8
Kontur
 62
   7
 39
0.100
  6
CONTINUOUS
 10
160.20100
 20
0.80600
 30
 0
 11
160.25500
 21
0.81100
  0
LINE
  8
Kontur
 62
   7
 39
0.100
  6
CONTINUOUS
 10
160.25500
 20
0.81100
 30
 0
 11
160.43800
 21
0.83100
  0
LINE
  8
Kontur
 62
   7
 39
0.100
  6
CONTINUOUS
 10
160.43800
 20
0.83100
 30
 0
 11
160.49200
 21
0.83800
  0
LINE
  8
Kontur
 62
   7
 39
0.100
  6
CONTINUOUS
 10
160.49200
 20
0.83800
 30
 0
 11
160.54600
 21
0.84700
  0
LINE
  8
Kontur
 62
   7
 39
0.100
  6
CONTINUOUS
 10
160.54600
 20
0.84700
 30
 0
 11
160.60000
 21
0.85800
  0
LINE
  8
Kontur
 62
   7
 39
0.100
  6
CONTINUOUS
 10
160.60000
 20
0.85800
 30
 0
 11
160.78000
 21
0.89800
  0
LINE
  8
Kontur
 62
   7
 39
0.100
  6
CONTINUOUS
 10
160.78000
 20
0.89800
 30
 0
 11
160.83400
 21
0.91100
  0
LINE
  8
Kontur
 62
   7
 39
0.100
  6
CONTINUOUS
 10
160.83400
 20
0.91100
 30
 0
 11
160.88600
 21
0.92500
  0
LINE
  8
Kontur
 62
   7
 39
0.100
  6
CONTINUOUS
 10
160.88600
 20
0.92500
 30
 0
 11
160.93700
 21
0.94100
  0
LINE
  8
Kontur
 62
   7
 39
0.100
  6
CONTINUOUS
 10
160.93700
 20
0.94100
 30
 0
 11
161.11100
 21
1.00000
  0
LINE
  8
Kontur
 62
   7
 39
0.100
  6
CONTINUOUS
 10
161.11100
 20
1.00000
 30
 0
 11
161.16200
 21
1.01900
  0
LINE
  8
Kontur
 62
   7
 39
0.100
  6
CONTINUOUS
 10
161.16200
 20
1.01900
 30
 0
 11
161.21300
 21
1.03900
  0
LINE
  8
Kontur
 62
   7
 39
0.100
  6
CONTINUOUS
 10
161.21300
 20
1.03900
 30
 0
 11
161.25700
 21
1.05900
  0
LINE
  8
Kontur
 62
   7
 39
0.100
  6
CONTINUOUS
 10
161.25700
 20
1.05900
 30
 0
 11
161.42400
 21
1.13600
  0
LINE
  8
Kontur
 62
   7
 39
0.100
  6
CONTINUOUS
 10
161.42400
 20
1.13600
 30
 0
 11
161.47300
 21
1.16000
  0
LINE
  8
Kontur
 62
   7
 39
0.100
  6
CONTINUOUS
 10
161.47300
 20
1.16000
 30
 0
 11
161.52200
 21
1.18500
  0
LINE
  8
Kontur
 62
   7
 39
0.100
  6
CONTINUOUS
 10
161.52200
 20
1.18500
 30
 0
 11
161.56900
 21
1.21200
  0
LINE
  8
Kontur
 62
   7
 39
0.100
  6
CONTINUOUS
 10
161.56900
 20
1.21200
 30
 0
 11
161.72700
 21
1.30700
  0
LINE
  8
Kontur
 62
   7
 39
0.100
  6
CONTINUOUS
 10
161.72700
 20
1.30700
 30
 0
 11
161.81900
 21
1.36700
  0
LINE
  8
Kontur
 62
   7
 39
0.100
  6
CONTINUOUS
 10
161.81900
 20
1.36700
 30
 0
 11
161.85800
 21
1.39600
  0
LINE
  8
Kontur
 62
   7
 39
0.100
  6
CONTINUOUS
 10
161.85800
 20
1.39600
 30
 0
 11
162.00500
 21
1.50700
  0
LINE
  8
Kontur
 62
   7
 39
0.100
  6
CONTINUOUS
 10
162.00500
 20
1.50700
 30
 0
 11
162.04800
 21
1.54100
  0
LINE
  8
Kontur
 62
   7
 39
0.100
  6
CONTINUOUS
 10
162.04800
 20
1.54100
 30
 0
 11
162.09000
 21
1.57600
  0
LINE
  8
Kontur
 62
   7
 39
0.100
  6
CONTINUOUS
 10
162.09000
 20
1.57600
 30
 0
 11
162.13700
 21
1.61900
  0
LINE
  8
Kontur
 62
   7
 39
0.100
  6
CONTINUOUS
 10
162.13700
 20
1.61900
 30
 0
 11
162.27000
 21
1.74600
  0
LINE
  8
Kontur
 62
   7
 39
0.100
  6
CONTINUOUS
 10
162.27000
 20
1.74600
 30
 0
 11
162.30900
 21
1.78500
  0
LINE
  8
Kontur
 62
   7
 39
0.100
  6
CONTINUOUS
 10
162.30900
 20
1.78500
 30
 0
 11
162.34600
 21
1.82500
  0
LINE
  8
Kontur
 62
   7
 39
0.100
  6
CONTINUOUS
 10
162.34600
 20
1.82500
 30
 0
 11
162.37700
 21
1.86000
  0
LINE
  8
Kontur
 62
   7
 39
0.100
  6
CONTINUOUS
 10
162.37700
 20
1.86000
 30
 0
 11
162.49600
 21
2.00000
  0
LINE
  8
Kontur
 62
   7
 39
0.100
  6
CONTINUOUS
 10
162.49600
 20
2.00000
 30
 0
 11
162.53100
 21
2.04200
  0
LINE
  8
Kontur
 62
   7
 39
0.100
  6
CONTINUOUS
 10
162.53100
 20
2.04200
 30
 0
 11
162.56400
 21
2.08600
  0
LINE
  8
Kontur
 62
   7
 39
0.100
  6
CONTINUOUS
 10
162.56400
 20
2.08600
 30
 0
 11
162.59400
 21
2.12800
  0
LINE
  8
Kontur
 62
   7
 39
0.100
  6
CONTINUOUS
 10
162.59400
 20
2.12800
 30
 0
 11
162.69800
 21
2.28100
  0
LINE
  8
Kontur
 62
   7
 39
0.100
  6
CONTINUOUS
 10
162.69800
 20
2.28100
 30
 0
 11
162.72700
 21
2.32700
  0
LINE
  8
Kontur
 62
   7
 39
0.100
  6
CONTINUOUS
 10
162.72700
 20
2.32700
 30
 0
 11
162.75600
 21
2.37400
  0
LINE
  8
Kontur
 62
   7
 39
0.100
  6
CONTINUOUS
 10
162.75600
 20
2.37400
 30
 0
 11
162.78200
 21
2.42100
  0
LINE
  8
Kontur
 62
   7
 39
0.100
  6
CONTINUOUS
 10
162.78200
 20
2.42100
 30
 0
 11
162.86800
 21
2.58300
  0
LINE
  8
Kontur
 62
   7
 39
0.100
  6
CONTINUOUS
 10
162.86800
 20
2.58300
 30
 0
 11
162.89300
 21
2.63200
  0
LINE
  8
Kontur
 62
   7
 39
0.100
  6
CONTINUOUS
 10
162.89300
 20
2.63200
 30
 0
 11
162.91600
 21
2.68100
  0
LINE
  8
Kontur
 62
   7
 39
0.100
  6
CONTINUOUS
 10
162.91600
 20
2.68100
 30
 0
 11
162.93700
 21
2.73200
  0
LINE
  8
Kontur
 62
   7
 39
0.100
  6
CONTINUOUS
 10
162.93700
 20
2.73200
 30
 0
 11
163.00500
 21
2.90300
  0
LINE
  8
Kontur
 62
   7
 39
0.100
  6
CONTINUOUS
 10
163.00500
 20
2.90300
 30
 0
 11
163.02400
 21
2.95400
  0
LINE
  8
Kontur
 62
   7
 39
0.100
  6
CONTINUOUS
 10
163.02400
 20
2.95400
 30
 0
 11
163.04200
 21
3.00600
  0
LINE
  8
Kontur
 62
   7
 39
0.100
  6
CONTINUOUS
 10
163.04200
 20
3.00600
 30
 0
 11
163.05700
 21
3.05900
  0
LINE
  8
Kontur
 62
   7
 39
0.100
  6
CONTINUOUS
 10
163.05700
 20
3.05900
 30
 0
 11
163.10600
 21
3.23700
  0
LINE
  8
Kontur
 62
   7
 39
0.100
  6
CONTINUOUS
 10
163.10600
 20
3.23700
 30
 0
 11
163.12000
 21
3.29000
  0
LINE
  8
Kontur
 62
   7
 39
0.100
  6
CONTINUOUS
 10
163.12000
 20
3.29000
 30
 0
 11
163.13100
 21
3.34300
  0
LINE
  8
Kontur
 62
   7
 39
0.100
  6
CONTINUOUS
 10
163.13100
 20
3.34300
 30
 0
 11
163.14000
 21
3.39000
  0
LINE
  8
Kontur
 62
   7
 39
0.100
  6
CONTINUOUS
 10
163.14000
 20
3.39000
 30
 0
 11
163.17000
 21
3.57100
  0
LINE
  8
Kontur
 62
   7
 39
0.100
  6
CONTINUOUS
 10
163.17000
 20
3.57100
 30
 0
 11
163.17800
 21
3.62500
  0
LINE
  8
Kontur
 62
   7
 39
0.100
  6
CONTINUOUS
 10
163.17800
 20
3.62500
 30
 0
 11
163.18400
 21
3.67900
  0
LINE
  8
Kontur
 62
   7
 39
0.100
  6
CONTINUOUS
 10
163.18400
 20
3.67900
 30
 0
 11
163.18800
 21
3.73500
  0
LINE
  8
Kontur
 62
   7
 39
0.100
  6
CONTINUOUS
 10
163.18800
 20
3.73500
 30
 0
 11
163.19800
 21
3.91900
  0
LINE
  8
Kontur
 62
   7
 39
0.100
  6
CONTINUOUS
 10
163.19800
 20
3.91900
 30
 0
 11
163.20000
 21
3.97300
  0
LINE
  8
Kontur
 62
   7
 39
0.100
  6
CONTINUOUS
 10
163.20000
 20
3.97300
 30
 0
 11
163.20000
 21
4.02800
  0
LINE
  8
Kontur
 62
   7
 39
0.100
  6
CONTINUOUS
 10
163.20000
 20
4.02800
 30
 0
 11
163.19800
 21
4.08100
  0
LINE
  8
Kontur
 62
   7
 39
0.100
  6
CONTINUOUS
 10
163.19800
 20
4.08100
 30
 0
 11
163.18800
 21
4.26500
  0
LINE
  8
Kontur
 62
   7
 39
0.100
  6
CONTINUOUS
 10
163.18800
 20
4.26500
 30
 0
 11
163.18400
 21
4.32000
  0
LINE
  8
Kontur
 62
   7
 39
0.100
  6
CONTINUOUS
 10
163.18400
 20
4.32000
 30
 0
 11
163.17800
 21
4.37400
  0
LINE
  8
Kontur
 62
   7
 39
0.100
  6
CONTINUOUS
 10
163.17800
 20
4.37400
 30
 0
 11
163.17000
 21
4.42900
  0
LINE
  8
Kontur
 62
   7
 39
0.100
  6
CONTINUOUS
 10
163.17000
 20
4.42900
 30
 0
 11
163.14000
 21
4.61000
  0
LINE
  8
Kontur
 62
   7
 39
0.100
  6
CONTINUOUS
 10
163.14000
 20
4.61000
 30
 0
 11
163.13000
 21
4.66400
  0
LINE
  8
Kontur
 62
   7
 39
0.100
  6
CONTINUOUS
 10
163.13000
 20
4.66400
 30
 0
 11
163.11800
 21
4.71800
  0
LINE
  8
Kontur
 62
   7
 39
0.100
  6
CONTINUOUS
 10
163.11800
 20
4.71800
 30
 0
 11
163.10600
 21
4.76300
  0
LINE
  8
Kontur
 62
   7
 39
0.100
  6
CONTINUOUS
 10
163.10600
 20
4.76300
 30
 0
 11
163.05700
 21
4.94100
  0
LINE
  8
Kontur
 62
   7
 39
0.100
  6
CONTINUOUS
 10
163.05700
 20
4.94100
 30
 0
 11
163.04200
 21
4.99400
  0
LINE
  8
Kontur
 62
   7
 39
0.100
  6
CONTINUOUS
 10
163.04200
 20
4.99400
 30
 0
 11
163.02400
 21
5.04600
  0
LINE
  8
Kontur
 62
   7
 39
0.100
  6
CONTINUOUS
 10
163.02400
 20
5.04600
 30
 0
 11
163.00500
 21
5.09700
  0
LINE
  8
Kontur
 62
   7
 39
0.100
  6
CONTINUOUS
 10
163.00500
 20
5.09700
 30
 0
 11
162.93700
 21
5.26800
  0
LINE
  8
Kontur
 62
   7
 39
0.100
  6
CONTINUOUS
 10
162.93700
 20
5.26800
 30
 0
 11
162.91600
 21
5.31900
  0
LINE
  8
Kontur
 62
   7
 39
0.100
  6
CONTINUOUS
 10
162.91600
 20
5.31900
 30
 0
 11
162.89300
 21
5.36800
  0
LINE
  8
Kontur
 62
   7
 39
0.100
  6
CONTINUOUS
 10
162.89300
 20
5.36800
 30
 0
 11
162.86800
 21
5.41700
  0
LINE
  8
Kontur
 62
   7
 39
0.100
  6
CONTINUOUS
 10
162.86800
 20
5.41700
 30
 0
 11
162.78200
 21
5.57900
  0
LINE
  8
Kontur
 62
   7
 39
0.100
  6
CONTINUOUS
 10
162.78200
 20
5.57900
 30
 0
 11
162.75500
 21
5.62700
  0
LINE
  8
Kontur
 62
   7
 39
0.100
  6
CONTINUOUS
 10
162.75500
 20
5.62700
 30
 0
 11
162.72700
 21
5.67400
  0
LINE
  8
Kontur
 62
   7
 39
0.100
  6
CONTINUOUS
 10
162.72700
 20
5.67400
 30
 0
 11
162.69800
 21
5.71900
  0
LINE
  8
Kontur
 62
   7
 39
0.100
  6
CONTINUOUS
 10
162.69800
 20
5.71900
 30
 0
 11
162.59400
 21
5.87200
  0
LINE
  8
Kontur
 62
   7
 39
0.100
  6
CONTINUOUS
 10
162.59400
 20
5.87200
 30
 0
 11
162.56200
 21
5.91700
  0
LINE
  8
Kontur
 62
   7
 39
0.100
  6
CONTINUOUS
 10
162.56200
 20
5.91700
 30
 0
 11
162.52900
 21
5.96100
  0
LINE
  8
Kontur
 62
   7
 39
0.100
  6
CONTINUOUS
 10
162.52900
 20
5.96100
 30
 0
 11
162.49600
 21
6.00000
  0
LINE
  8
Kontur
 62
   7
 39
0.100
  6
CONTINUOUS
 10
162.49600
 20
6.00000
 30
 0
 11
162.37700
 21
6.14000
  0
LINE
  8
Kontur
 62
   7
 39
0.100
  6
CONTINUOUS
 10
162.37700
 20
6.14000
 30
 0
 11
162.34100
 21
6.18200
  0
LINE
  8
Kontur
 62
   7
 39
0.100
  6
CONTINUOUS
 10
162.34100
 20
6.18200
 30
 0
 11
162.30300
 21
6.22100
  0
LINE
  8
Kontur
 62
   7
 39
0.100
  6
CONTINUOUS
 10
162.30300
 20
6.22100
 30
 0
 11
162.27000
 21
6.25400
  0
LINE
  8
Kontur
 62
   7
 39
0.100
  6
CONTINUOUS
 10
162.27000
 20
6.25400
 30
 0
 11
162.13700
 21
6.38100
  0
LINE
  8
Kontur
 62
   7
 39
0.100
  6
CONTINUOUS
 10
162.13700
 20
6.38100
 30
 0
 11
162.09700
 21
6.41800
  0
LINE
  8
Kontur
 62
   7
 39
0.100
  6
CONTINUOUS
 10
162.09700
 20
6.41800
 30
 0
 11
162.05500
 21
6.45400
  0
LINE
  8
Kontur
 62
   7
 39
0.100
  6
CONTINUOUS
 10
162.05500
 20
6.45400
 30
 0
 11
162.00500
 21
6.49300
  0
LINE
  8
Kontur
 62
   7
 39
0.100
  6
CONTINUOUS
 10
162.00500
 20
6.49300
 30
 0
 11
161.85800
 21
6.60400
  0
LINE
  8
Kontur
 62
   7
 39
0.100
  6
CONTINUOUS
 10
161.85800
 20
6.60400
 30
 0
 11
161.81400
 21
6.63600
  0
LINE
  8
Kontur
 62
   7
 39
0.100
  6
CONTINUOUS
 10
161.81400
 20
6.63600
 30
 0
 11
161.76800
 21
6.66700
  0
LINE
  8
Kontur
 62
   7
 39
0.100
  6
CONTINUOUS
 10
161.76800
 20
6.66700
 30
 0
 11
161.72700
 21
6.69300
  0
LINE
  8
Kontur
 62
   7
 39
0.100
  6
CONTINUOUS
 10
161.72700
 20
6.69300
 30
 0
 11
161.56900
 21
6.78800
  0
LINE
  8
Kontur
 62
   7
 39
0.100
  6
CONTINUOUS
 10
161.56900
 20
6.78800
 30
 0
 11
161.52100
 21
6.81500
  0
LINE
  8
Kontur
 62
   7
 39
0.100
  6
CONTINUOUS
 10
161.52100
 20
6.81500
 30
 0
 11
161.47300
 21
6.84000
  0
LINE
  8
Kontur
 62
   7
 39
0.100
  6
CONTINUOUS
 10
161.47300
 20
6.84000
 30
 0
 11
161.42400
 21
6.86400
  0
LINE
  8
Kontur
 62
   7
 39
0.100
  6
CONTINUOUS
 10
161.42400
 20
6.86400
 30
 0
 11
161.25700
 21
6.94100
  0
LINE
  8
Kontur
 62
   7
 39
0.100
  6
CONTINUOUS
 10
161.25700
 20
6.94100
 30
 0
 11
161.20700
 21
6.96300
  0
LINE
  8
Kontur
 62
   7
 39
0.100
  6
CONTINUOUS
 10
161.20700
 20
6.96300
 30
 0
 11
161.15600
 21
6.98300
  0
LINE
  8
Kontur
 62
   7
 39
0.100
  6
CONTINUOUS
 10
161.15600
 20
6.98300
 30
 0
 11
161.11100
 21
7.00000
  0
LINE
  8
Kontur
 62
   7
 39
0.100
  6
CONTINUOUS
 10
161.11100
 20
7.00000
 30
 0
 11
160.93700
 21
7.05900
  0
LINE
  8
Kontur
 62
   7
 39
0.100
  6
CONTINUOUS
 10
160.93700
 20
7.05900
 30
 0
 11
160.88500
 21
7.07500
  0
LINE
  8
Kontur
 62
   7
 39
0.100
  6
CONTINUOUS
 10
160.88500
 20
7.07500
 30
 0
 11
160.83200
 21
7.09000
  0
LINE
  8
Kontur
 62
   7
 39
0.100
  6
CONTINUOUS
 10
160.83200
 20
7.09000
 30
 0
 11
160.78000
 21
7.10200
  0
LINE
  8
Kontur
 62
   7
 39
0.100
  6
CONTINUOUS
 10
160.78000
 20
7.10200
 30
 0
 11
160.60000
 21
7.14200
  0
LINE
  8
Kontur
 62
   7
 39
0.100
  6
CONTINUOUS
 10
160.60000
 20
7.14200
 30
 0
 11
160.54700
 21
7.15300
  0
LINE
  8
Kontur
 62
   7
 39
0.100
  6
CONTINUOUS
 10
160.54700
 20
7.15300
 30
 0
 11
160.49300
 21
7.16200
  0
LINE
  8
Kontur
 62
   7
 39
0.100
  6
CONTINUOUS
 10
160.49300
 20
7.16200
 30
 0
 11
160.43800
 21
7.16900
  0
LINE
  8
Kontur
 62
   7
 39
0.100
  6
CONTINUOUS
 10
160.43800
 20
7.16900
 30
 0
 11
160.25500
 21
7.18900
  0
LINE
  8
Kontur
 62
   7
 39
0.100
  6
CONTINUOUS
 10
160.25500
 20
7.18900
 30
 0
 11
160.20000
 21
7.19400
  0
LINE
  8
Kontur
 62
   7
 39
0.100
  6
CONTINUOUS
 10
160.20000
 20
7.19400
 30
 0
 11
160.14600
 21
7.19700
  0
LINE
  8
Kontur
 62
   7
 39
0.100
  6
CONTINUOUS
 10
160.14600
 20
7.19700
 30
 0
 11
160.09200
 21
7.19800
  0
LINE
  8
Kontur
 62
   7
 39
0.100
  6
CONTINUOUS
 10
160.09200
 20
7.19800
 30
 0
 11
159.90800
 21
7.19800
  0
LINE
  8
Kontur
 62
   7
 39
0.100
  6
CONTINUOUS
 10
159.90800
 20
7.19800
 30
 0
 11
159.85300
 21
7.19700
  0
LINE
  8
Kontur
 62
   7
 39
0.100
  6
CONTINUOUS
 10
159.85300
 20
7.19700
 30
 0
 11
159.79900
 21
7.19400
  0
LINE
  8
Kontur
 62
   7
 39
0.100
  6
CONTINUOUS
 10
159.79900
 20
7.19400
 30
 0
 11
159.74500
 21
7.18900
  0
LINE
  8
Kontur
 62
   7
 39
0.100
  6
CONTINUOUS
 10
159.74500
 20
7.18900
 30
 0
 11
159.56200
 21
7.16900
  0
LINE
  8
Kontur
 62
   7
 39
0.100
  6
CONTINUOUS
 10
159.56200
 20
7.16900
 30
 0
 11
159.50800
 21
7.16200
  0
LINE
  8
Kontur
 62
   7
 39
0.100
  6
CONTINUOUS
 10
159.50800
 20
7.16200
 30
 0
 11
159.45400
 21
7.15300
  0
LINE
  8
Kontur
 62
   7
 39
0.100
  6
CONTINUOUS
 10
159.45400
 20
7.15300
 30
 0
 11
159.40000
 21
7.14200
  0
LINE
  8
Kontur
 62
   7
 39
0.100
  6
CONTINUOUS
 10
159.40000
 20
7.14200
 30
 0
 11
159.22000
 21
7.10200
  0
LINE
  8
Kontur
 62
   7
 39
0.100
  6
CONTINUOUS
 10
159.22000
 20
7.10200
 30
 0
 11
159.16600
 21
7.08900
  0
LINE
  8
Kontur
 62
   7
 39
0.100
  6
CONTINUOUS
 10
159.16600
 20
7.08900
 30
 0
 11
159.11400
 21
7.07500
  0
LINE
  8
Kontur
 62
   7
 39
0.100
  6
CONTINUOUS
 10
159.11400
 20
7.07500
 30
 0
 11
159.06300
 21
7.05900
  0
LINE
  8
Kontur
 62
   7
 39
0.100
  6
CONTINUOUS
 10
159.06300
 20
7.05900
 30
 0
 11
158.88900
 21
7.00000
  0
LINE
  8
Kontur
 62
   7
 39
0.100
  6
CONTINUOUS
 10
158.88900
 20
7.00000
 30
 0
 11
158.83800
 21
6.98100
  0
LINE
  8
Kontur
 62
   7
 39
0.100
  6
CONTINUOUS
 10
158.83800
 20
6.98100
 30
 0
 11
158.78700
 21
6.96100
  0
LINE
  8
Kontur
 62
   7
 39
0.100
  6
CONTINUOUS
 10
158.78700
 20
6.96100
 30
 0
 11
158.74300
 21
6.94100
  0
LINE
  8
Kontur
 62
   7
 39
0.100
  6
CONTINUOUS
 10
158.74300
 20
6.94100
 30
 0
 11
158.57600
 21
6.86400
  0
LINE
  8
Kontur
 62
   7
 39
0.100
  6
CONTINUOUS
 10
158.57600
 20
6.86400
 30
 0
 11
158.52700
 21
6.84000
  0
LINE
  8
Kontur
 62
   7
 39
0.100
  6
CONTINUOUS
 10
158.52700
 20
6.84000
 30
 0
 11
158.47800
 21
6.81500
  0
LINE
  8
Kontur
 62
   7
 39
0.100
  6
CONTINUOUS
 10
158.47800
 20
6.81500
 30
 0
 11
158.43100
 21
6.78800
  0
LINE
  8
Kontur
 62
   7
 39
0.100
  6
CONTINUOUS
 10
158.43100
 20
6.78800
 30
 0
 11
158.27300
 21
6.69300
  0
LINE
  8
Kontur
 62
   7
 39
0.100
  6
CONTINUOUS
 10
158.27300
 20
6.69300
 30
 0
 11
158.18100
 21
6.63300
  0
LINE
  8
Kontur
 62
   7
 39
0.100
  6
CONTINUOUS
 10
158.18100
 20
6.63300
 30
 0
 11
158.14200
 21
6.60400
  0
LINE
  8
Kontur
 62
   7
 39
0.100
  6
CONTINUOUS
 10
158.14200
 20
6.60400
 30
 0
 11
157.99500
 21
6.49300
  0
LINE
  8
Kontur
 62
   7
 39
0.100
  6
CONTINUOUS
 10
157.99500
 20
6.49300
 30
 0
 11
157.95200
 21
6.45900
  0
LINE
  8
Kontur
 62
   7
 39
0.100
  6
CONTINUOUS
 10
157.95200
 20
6.45900
 30
 0
 11
157.91000
 21
6.42400
  0
LINE
  8
Kontur
 62
   7
 39
0.100
  6
CONTINUOUS
 10
157.91000
 20
6.42400
 30
 0
 11
157.86300
 21
6.38100
  0
LINE
  8
Kontur
 62
   7
 39
0.100
  6
CONTINUOUS
 10
157.86300
 20
6.38100
 30
 0
 11
157.73000
 21
6.25400
  0
LINE
  8
Kontur
 62
   7
 39
0.100
  6
CONTINUOUS
 10
157.73000
 20
6.25400
 30
 0
 11
157.69100
 21
6.21500
  0
LINE
  8
Kontur
 62
   7
 39
0.100
  6
CONTINUOUS
 10
157.69100
 20
6.21500
 30
 0
 11
157.65400
 21
6.17500
  0
LINE
  8
Kontur
 62
   7
 39
0.100
  6
CONTINUOUS
 10
157.65400
 20
6.17500
 30
 0
 11
157.62300
 21
6.14000
  0
LINE
  8
Kontur
 62
   7
 39
0.100
  6
CONTINUOUS
 10
157.62300
 20
6.14000
 30
 0
 11
157.50400
 21
6.00000
  0
LINE
  8
Kontur
 62
   7
 39
0.100
  6
CONTINUOUS
 10
157.50400
 20
6.00000
 30
 0
 11
157.46900
 21
5.95800
  0
LINE
  8
Kontur
 62
   7
 39
0.100
  6
CONTINUOUS
 10
157.46900
 20
5.95800
 30
 0
 11
157.43600
 21
5.91400
  0
LINE
  8
Kontur
 62
   7
 39
0.100
  6
CONTINUOUS
 10
157.43600
 20
5.91400
 30
 0
 11
157.40600
 21
5.87200
  0
LINE
  8
Kontur
 62
   7
 39
0.100
  6
CONTINUOUS
 10
157.40600
 20
5.87200
 30
 0
 11
157.30200
 21
5.71900
  0
LINE
  8
Kontur
 62
   7
 39
0.100
  6
CONTINUOUS
 10
157.30200
 20
5.71900
 30
 0
 11
157.27300
 21
5.67300
  0
LINE
  8
Kontur
 62
   7
 39
0.100
  6
CONTINUOUS
 10
157.27300
 20
5.67300
 30
 0
 11
157.24400
 21
5.62600
  0
LINE
  8
Kontur
 62
   7
 39
0.100
  6
CONTINUOUS
 10
157.24400
 20
5.62600
 30
 0
 11
157.21800
 21
5.57900
  0
LINE
  8
Kontur
 62
   7
 39
0.100
  6
CONTINUOUS
 10
157.21800
 20
5.57900
 30
 0
 11
157.13200
 21
5.41700
  0
LINE
  8
Kontur
 62
   7
 39
0.100
  6
CONTINUOUS
 10
157.13200
 20
5.41700
 30
 0
 11
157.10700
 21
5.36800
  0
LINE
  8
Kontur
 62
   7
 39
0.100
  6
CONTINUOUS
 10
157.10700
 20
5.36800
 30
 0
 11
157.08400
 21
5.31900
  0
LINE
  8
Kontur
 62
   7
 39
0.100
  6
CONTINUOUS
 10
157.08400
 20
5.31900
 30
 0
 11
157.06300
 21
5.26800
  0
LINE
  8
Kontur
 62
   7
 39
0.100
  6
CONTINUOUS
 10
157.06300
 20
5.26800
 30
 0
 11
156.99500
 21
5.09700
  0
LINE
  8
Kontur
 62
   7
 39
0.100
  6
CONTINUOUS
 10
156.99500
 20
5.09700
 30
 0
 11
156.97600
 21
5.04600
  0
LINE
  8
Kontur
 62
   7
 39
0.100
  6
CONTINUOUS
 10
156.97600
 20
5.04600
 30
 0
 11
156.95800
 21
4.99400
  0
LINE
  8
Kontur
 62
   7
 39
0.100
  6
CONTINUOUS
 10
156.95800
 20
4.99400
 30
 0
 11
156.94300
 21
4.94100
  0
LINE
  8
Kontur
 62
   7
 39
0.100
  6
CONTINUOUS
 10
156.94300
 20
4.94100
 30
 0
 11
156.89400
 21
4.76300
  0
LINE
  8
Kontur
 62
   7
 39
0.100
  6
CONTINUOUS
 10
156.89400
 20
4.76300
 30
 0
 11
156.88000
 21
4.71000
  0
LINE
  8
Kontur
 62
   7
 39
0.100
  6
CONTINUOUS
 10
156.88000
 20
4.71000
 30
 0
 11
156.86900
 21
4.65700
  0
LINE
  8
Kontur
 62
   7
 39
0.100
  6
CONTINUOUS
 10
156.86900
 20
4.65700
 30
 0
 11
156.86000
 21
4.61000
  0
LINE
  8
Kontur
 62
   7
 39
0.100
  6
CONTINUOUS
 10
156.86000
 20
4.61000
 30
 0
 11
156.83000
 21
4.42900
  0
LINE
  8
Kontur
 62
   7
 39
0.100
  6
CONTINUOUS
 10
156.83000
 20
4.42900
 30
 0
 11
156.82200
 21
4.37500
  0
LINE
  8
Kontur
 62
   7
 39
0.100
  6
CONTINUOUS
 10
156.82200
 20
4.37500
 30
 0
 11
156.81600
 21
4.32100
  0
LINE
  8
Kontur
 62
   7
 39
0.100
  6
CONTINUOUS
 10
156.81600
 20
4.32100
 30
 0
 11
156.81200
 21
4.26500
  0
LINE
  8
Kontur
 62
   7
 39
0.100
  6
CONTINUOUS
 10
156.81200
 20
4.26500
 30
 0
 11
156.80200
 21
4.08100
  0
LINE
  8
Kontur
 62
   7
 39
0.100
  6
CONTINUOUS
 10
156.80200
 20
4.08100
 30
 0
 11
156.80000
 21
4.02700
  0
LINE
  8
Kontur
 62
   7
 39
0.100
  6
CONTINUOUS
 10
156.80000
 20
4.02700
 30
 0
 11
156.80000
 21
3.97200
  0
LINE
  8
Kontur
 62
   7
 39
0.100
  6
CONTINUOUS
 10
156.80000
 20
3.97200
 30
 0
 11
156.80200
 21
3.91900
  0
LINE
  8
Kontur
 62
   7
 39
0.100
  6
CONTINUOUS
 10
156.80200
 20
3.91900
 30
 0
 11
156.81200
 21
3.73500
  0
LINE
  8
Kontur
 62
   7
 39
0.100
  6
CONTINUOUS
 10
156.81200
 20
3.73500
 30
 0
 11
156.81600
 21
3.68000
  0
LINE
  8
Kontur
 62
   7
 39
0.100
  6
CONTINUOUS
 10
156.81600
 20
3.68000
 30
 0
 11
156.82200
 21
3.62600
  0
LINE
  8
Kontur
 62
   7
 39
0.100
  6
CONTINUOUS
 10
156.82200
 20
3.62600
 30
 0
 11
156.83000
 21
3.57100
  0
LINE
  8
Kontur
 62
   7
 39
0.100
  6
CONTINUOUS
 10
156.83000
 20
3.57100
 30
 0
 11
156.86000
 21
3.39000
  0
LINE
  8
Kontur
 62
   7
 39
0.100
  6
CONTINUOUS
 10
156.86000
 20
3.39000
 30
 0
 11
156.87000
 21
3.33600
  0
LINE
  8
Kontur
 62
   7
 39
0.100
  6
CONTINUOUS
 10
156.87000
 20
3.33600
 30
 0
 11
156.88200
 21
3.28200
  0
LINE
  8
Kontur
 62
   7
 39
0.100
  6
CONTINUOUS
 10
156.88200
 20
3.28200
 30
 0
 11
156.89400
 21
3.23700
  0
LINE
  8
Kontur
 62
   7
 39
0.100
  6
CONTINUOUS
 10
156.89400
 20
3.23700
 30
 0
 11
156.94300
 21
3.05900
  0
LINE
  8
Kontur
 62
   7
 39
0.100
  6
CONTINUOUS
 10
156.94300
 20
3.05900
 30
 0
 11
156.95800
 21
3.00600
  0
LINE
  8
Kontur
 62
   7
 39
0.100
  6
CONTINUOUS
 10
156.95800
 20
3.00600
 30
 0
 11
156.97600
 21
2.95400
  0
LINE
  8
Kontur
 62
   7
 39
0.100
  6
CONTINUOUS
 10
156.97600
 20
2.95400
 30
 0
 11
156.99500
 21
2.90300
  0
LINE
  8
Kontur
 62
   7
 39
0.100
  6
CONTINUOUS
 10
156.99500
 20
2.90300
 30
 0
 11
157.06300
 21
2.73200
  0
LINE
  8
Kontur
 62
   7
 39
0.100
  6
CONTINUOUS
 10
157.06300
 20
2.73200
 30
 0
 11
157.08400
 21
2.68100
  0
LINE
  8
Kontur
 62
   7
 39
0.100
  6
CONTINUOUS
 10
157.08400
 20
2.68100
 30
 0
 11
157.10700
 21
2.63200
  0
LINE
  8
Kontur
 62
   7
 39
0.100
  6
CONTINUOUS
 10
157.10700
 20
2.63200
 30
 0
 11
157.13200
 21
2.58300
  0
LINE
  8
Kontur
 62
   7
 39
0.100
  6
CONTINUOUS
 10
157.13200
 20
2.58300
 30
 0
 11
157.21800
 21
2.42100
  0
LINE
  8
Kontur
 62
   7
 39
0.100
  6
CONTINUOUS
 10
157.21800
 20
2.42100
 30
 0
 11
157.24500
 21
2.37300
  0
LINE
  8
Kontur
 62
   7
 39
0.100
  6
CONTINUOUS
 10
157.24500
 20
2.37300
 30
 0
 11
157.27300
 21
2.32600
  0
LINE
  8
Kontur
 62
   7
 39
0.100
  6
CONTINUOUS
 10
157.27300
 20
2.32600
 30
 0
 11
157.30200
 21
2.28100
  0
LINE
  8
Kontur
 62
   7
 39
0.100
  6
CONTINUOUS
 10
157.30200
 20
2.28100
 30
 0
 11
157.40600
 21
2.12800
  0
LINE
  8
Kontur
 62
   7
 39
0.100
  6
CONTINUOUS
 10
157.40600
 20
2.12800
 30
 0
 11
157.43800
 21
2.08300
  0
LINE
  8
Kontur
 62
   7
 39
0.100
  6
CONTINUOUS
 10
157.43800
 20
2.08300
 30
 0
 11
157.47100
 21
2.03900
  0
LINE
  8
Kontur
 62
   7
 39
0.100
  6
CONTINUOUS
 10
157.47100
 20
2.03900
 30
 0
 11
157.50400
 21
2.00000
  0
LINE
  8
Kontur
 62
   7
 39
0.100
  6
CONTINUOUS
 10
157.50400
 20
2.00000
 30
 0
 11
157.62300
 21
1.86000
  0
LINE
  8
Kontur
 62
   7
 39
0.100
  6
CONTINUOUS
 10
157.62300
 20
1.86000
 30
 0
 11
157.65900
 21
1.81800
  0
LINE
  8
Kontur
 62
   7
 39
0.100
  6
CONTINUOUS
 10
157.65900
 20
1.81800
 30
 0
 11
157.69700
 21
1.77900
  0
LINE
  8
Kontur
 62
   7
 39
0.100
  6
CONTINUOUS
 10
157.69700
 20
1.77900
 30
 0
 11
157.73000
 21
1.74600
  0
LINE
  8
Kontur
 62
   7
 39
0.100
  6
CONTINUOUS
 10
157.73000
 20
1.74600
 30
 0
 11
157.86300
 21
1.61900
  0
LINE
  8
Kontur
 62
   7
 39
0.100
  6
CONTINUOUS
 10
157.86300
 20
1.61900
 30
 0
 11
157.90300
 21
1.58200
  0
LINE
  8
Kontur
 62
   7
 39
0.100
  6
CONTINUOUS
 10
157.90300
 20
1.58200
 30
 0
 11
157.94500
 21
1.54600
  0
LINE
  8
Kontur
 62
   7
 39
0.100
  6
CONTINUOUS
 10
157.94500
 20
1.54600
 30
 0
 11
157.99500
 21
1.50700
  0
LINE
  8
Kontur
 62
   7
 39
0.100
  6
CONTINUOUS
 10
157.99500
 20
1.50700
 30
 0
 11
158.14200
 21
1.39600
  0
LINE
  8
Kontur
 62
   7
 39
0.100
  6
CONTINUOUS
 10
158.14200
 20
1.39600
 30
 0
 11
158.18600
 21
1.36400
  0
LINE
  8
Kontur
 62
   7
 39
0.100
  6
CONTINUOUS
 10
158.18600
 20
1.36400
 30
 0
 11
158.23200
 21
1.33300
  0
LINE
  8
Kontur
 62
   7
 39
0.100
  6
CONTINUOUS
 10
158.23200
 20
1.33300
 30
 0
 11
158.27300
 21
1.30700
  0
LINE
  8
Kontur
 62
   7
 39
0.100
  6
CONTINUOUS
 10
158.27300
 20
1.30700
 30
 0
 11
158.43100
 21
1.21200
  0
LINE
  8
Kontur
 62
   7
 39
0.100
  6
CONTINUOUS
 10
158.43100
 20
1.21200
 30
 0
 11
158.47900
 21
1.18500
  0
LINE
  8
Kontur
 62
   7
 39
0.100
  6
CONTINUOUS
 10
158.47900
 20
1.18500
 30
 0
 11
158.52700
 21
1.16000
  0
LINE
  8
Kontur
 62
   7
 39
0.100
  6
CONTINUOUS
 10
158.52700
 20
1.16000
 30
 0
 11
158.57600
 21
1.13600
  0
LINE
  8
Kontur
 62
   7
 39
0.100
  6
CONTINUOUS
 10
158.57600
 20
1.13600
 30
 0
 11
158.74300
 21
1.05900
  0
LINE
  8
Kontur
 62
   7
 39
0.100
  6
CONTINUOUS
 10
158.74300
 20
1.05900
 30
 0
 11
158.79300
 21
1.03700
  0
LINE
  8
Kontur
 62
   7
 39
0.100
  6
CONTINUOUS
 10
158.79300
 20
1.03700
 30
 0
 11
158.84400
 21
1.01700
  0
LINE
  8
Kontur
 62
   7
 39
0.100
  6
CONTINUOUS
 10
158.84400
 20
1.01700
 30
 0
 11
158.88900
 21
1.00000
  0
LINE
  8
Kontur
 62
   7
 39
0.100
  6
CONTINUOUS
 10
158.88900
 20
1.00000
 30
 0
 11
159.06300
 21
0.94100
  0
LINE
  8
Kontur
 62
   7
 39
0.100
  6
CONTINUOUS
 10
159.06300
 20
0.94100
 30
 0
 11
159.11500
 21
0.92500
  0
LINE
  8
Kontur
 62
   7
 39
0.100
  6
CONTINUOUS
 10
159.11500
 20
0.92500
 30
 0
 11
159.16800
 21
0.91000
  0
LINE
  8
Kontur
 62
   7
 39
0.100
  6
CONTINUOUS
 10
159.16800
 20
0.91000
 30
 0
 11
159.22000
 21
0.89800
  0
LINE
  8
Kontur
 62
   7
 39
0.100
  6
CONTINUOUS
 10
159.22000
 20
0.89800
 30
 0
 11
159.40000
 21
0.85800
  0
LINE
  8
Kontur
 62
   7
 39
0.100
  6
CONTINUOUS
 10
159.40000
 20
0.85800
 30
 0
 11
159.45300
 21
0.84700
  0
LINE
  8
Kontur
 62
   7
 39
0.100
  6
CONTINUOUS
 10
159.45300
 20
0.84700
 30
 0
 11
159.50700
 21
0.83800
  0
LINE
  8
Kontur
 62
   7
 39
0.100
  6
CONTINUOUS
 10
159.50700
 20
0.83800
 30
 0
 11
159.56200
 21
0.83100
  0
LINE
  8
Kontur
 62
   7
 39
0.100
  6
CONTINUOUS
 10
159.56200
 20
0.83100
 30
 0
 11
159.74500
 21
0.81100
  0
LINE
  8
Kontur
 62
   7
 39
0.100
  6
CONTINUOUS
 10
159.74500
 20
0.81100
 30
 0
 11
159.80000
 21
0.80600
  0
LINE
  8
Kontur
 62
   7
 39
0.100
  6
CONTINUOUS
 10
159.80000
 20
0.80600
 30
 0
 11
159.85400
 21
0.80300
  0
LINE
  8
Kontur
 62
   7
 39
0.100
  6
CONTINUOUS
 10
159.85400
 20
0.80300
 30
 0
 11
159.90800
 21
0.80200
  0
LINE
  8
Kontur
 62
   7
 39
0.100
  6
CONTINUOUS
 10
159.90800
 20
0.80200
 30
 0
 11
160.09200
 21
0.80200
  0
LINE
  8
Kontur
 62
   7
 39
0.100
  6
CONTINUOUS
 10
160.09200
 20
0.80200
 30
 0
 11
160.14700
 21
0.80300
  0
CIRCLE
  8
Kontur
 62
   7
 39
0.100
  6
CONTINUOUS
 10
160.00000
 20
4.00000
 30
 0
 40
1.70000
  0
LINE
  8
Kontur
 62
   7
 39
0.100
  6
CONTINUOUS
 10
160.14700
 20
0.80300
 30
 0
 11
160.20100
 21
0.80600
  0
LINE
  8
Kontur
 62
   7
 39
0.100
  6
CONTINUOUS
 10
160.20100
 20
0.80600
 30
 0
 11
160.25500
 21
0.81100
  0
LINE
  8
Kontur
 62
   7
 39
0.100
  6
CONTINUOUS
 10
160.25500
 20
0.81100
 30
 0
 11
160.43800
 21
0.83100
  0
LINE
  8
Kontur
 62
   7
 39
0.100
  6
CONTINUOUS
 10
160.43800
 20
0.83100
 30
 0
 11
160.49200
 21
0.83800
  0
LINE
  8
Kontur
 62
   7
 39
0.100
  6
CONTINUOUS
 10
160.49200
 20
0.83800
 30
 0
 11
160.54600
 21
0.84700
  0
LINE
  8
Kontur
 62
   7
 39
0.100
  6
CONTINUOUS
 10
160.54600
 20
0.84700
 30
 0
 11
160.60000
 21
0.85800
  0
LINE
  8
Kontur
 62
   7
 39
0.100
  6
CONTINUOUS
 10
160.60000
 20
0.85800
 30
 0
 11
160.78000
 21
0.89800
  0
LINE
  8
Kontur
 62
   7
 39
0.100
  6
CONTINUOUS
 10
160.78000
 20
0.89800
 30
 0
 11
160.83400
 21
0.91100
  0
LINE
  8
Kontur
 62
   7
 39
0.100
  6
CONTINUOUS
 10
160.83400
 20
0.91100
 30
 0
 11
160.88600
 21
0.92500
  0
LINE
  8
Kontur
 62
   7
 39
0.100
  6
CONTINUOUS
 10
160.88600
 20
0.92500
 30
 0
 11
160.93700
 21
0.94100
  0
LINE
  8
Kontur
 62
   7
 39
0.100
  6
CONTINUOUS
 10
160.93700
 20
0.94100
 30
 0
 11
161.11100
 21
1.00000
  0
LINE
  8
Kontur
 62
   7
 39
0.100
  6
CONTINUOUS
 10
161.11100
 20
1.00000
 30
 0
 11
161.16200
 21
1.01900
  0
LINE
  8
Kontur
 62
   7
 39
0.100
  6
CONTINUOUS
 10
161.16200
 20
1.01900
 30
 0
 11
161.21300
 21
1.03900
  0
LINE
  8
Kontur
 62
   7
 39
0.100
  6
CONTINUOUS
 10
161.21300
 20
1.03900
 30
 0
 11
161.25700
 21
1.05900
  0
LINE
  8
Kontur
 62
   7
 39
0.100
  6
CONTINUOUS
 10
161.25700
 20
1.05900
 30
 0
 11
161.42400
 21
1.13600
  0
LINE
  8
Kontur
 62
   7
 39
0.100
  6
CONTINUOUS
 10
161.42400
 20
1.13600
 30
 0
 11
161.47300
 21
1.16000
  0
LINE
  8
Kontur
 62
   7
 39
0.100
  6
CONTINUOUS
 10
161.47300
 20
1.16000
 30
 0
 11
161.52200
 21
1.18500
  0
LINE
  8
Kontur
 62
   7
 39
0.100
  6
CONTINUOUS
 10
161.52200
 20
1.18500
 30
 0
 11
161.56900
 21
1.21200
  0
LINE
  8
Kontur
 62
   7
 39
0.100
  6
CONTINUOUS
 10
161.56900
 20
1.21200
 30
 0
 11
161.72700
 21
1.30700
  0
LINE
  8
Kontur
 62
   7
 39
0.100
  6
CONTINUOUS
 10
161.72700
 20
1.30700
 30
 0
 11
161.81900
 21
1.36700
  0
LINE
  8
Kontur
 62
   7
 39
0.100
  6
CONTINUOUS
 10
161.81900
 20
1.36700
 30
 0
 11
161.85800
 21
1.39600
  0
LINE
  8
Kontur
 62
   7
 39
0.100
  6
CONTINUOUS
 10
161.85800
 20
1.39600
 30
 0
 11
162.00500
 21
1.50700
  0
LINE
  8
Kontur
 62
   7
 39
0.100
  6
CONTINUOUS
 10
162.00500
 20
1.50700
 30
 0
 11
162.04800
 21
1.54100
  0
LINE
  8
Kontur
 62
   7
 39
0.100
  6
CONTINUOUS
 10
162.04800
 20
1.54100
 30
 0
 11
162.09000
 21
1.57600
  0
LINE
  8
Kontur
 62
   7
 39
0.100
  6
CONTINUOUS
 10
162.09000
 20
1.57600
 30
 0
 11
162.13700
 21
1.61900
  0
LINE
  8
Kontur
 62
   7
 39
0.100
  6
CONTINUOUS
 10
162.13700
 20
1.61900
 30
 0
 11
162.27000
 21
1.74600
  0
LINE
  8
Kontur
 62
   7
 39
0.100
  6
CONTINUOUS
 10
162.27000
 20
1.74600
 30
 0
 11
162.30900
 21
1.78500
  0
LINE
  8
Kontur
 62
   7
 39
0.100
  6
CONTINUOUS
 10
162.30900
 20
1.78500
 30
 0
 11
162.34600
 21
1.82500
  0
LINE
  8
Kontur
 62
   7
 39
0.100
  6
CONTINUOUS
 10
162.34600
 20
1.82500
 30
 0
 11
162.37700
 21
1.86000
  0
LINE
  8
Kontur
 62
   7
 39
0.100
  6
CONTINUOUS
 10
162.37700
 20
1.86000
 30
 0
 11
162.49600
 21
2.00000
  0
LINE
  8
Kontur
 62
   7
 39
0.100
  6
CONTINUOUS
 10
162.49600
 20
2.00000
 30
 0
 11
162.53100
 21
2.04200
  0
LINE
  8
Kontur
 62
   7
 39
0.100
  6
CONTINUOUS
 10
162.53100
 20
2.04200
 30
 0
 11
162.56400
 21
2.08600
  0
LINE
  8
Kontur
 62
   7
 39
0.100
  6
CONTINUOUS
 10
162.56400
 20
2.08600
 30
 0
 11
162.59400
 21
2.12800
  0
LINE
  8
Kontur
 62
   7
 39
0.100
  6
CONTINUOUS
 10
162.59400
 20
2.12800
 30
 0
 11
162.69800
 21
2.28100
  0
LINE
  8
Kontur
 62
   7
 39
0.100
  6
CONTINUOUS
 10
162.69800
 20
2.28100
 30
 0
 11
162.72700
 21
2.32700
  0
LINE
  8
Kontur
 62
   7
 39
0.100
  6
CONTINUOUS
 10
162.72700
 20
2.32700
 30
 0
 11
162.75600
 21
2.37400
  0
LINE
  8
Kontur
 62
   7
 39
0.100
  6
CONTINUOUS
 10
162.75600
 20
2.37400
 30
 0
 11
162.78200
 21
2.42100
  0
LINE
  8
Kontur
 62
   7
 39
0.100
  6
CONTINUOUS
 10
162.78200
 20
2.42100
 30
 0
 11
162.86800
 21
2.58300
  0
LINE
  8
Kontur
 62
   7
 39
0.100
  6
CONTINUOUS
 10
162.86800
 20
2.58300
 30
 0
 11
162.89300
 21
2.63200
  0
LINE
  8
Kontur
 62
   7
 39
0.100
  6
CONTINUOUS
 10
162.89300
 20
2.63200
 30
 0
 11
162.91600
 21
2.68100
  0
LINE
  8
Kontur
 62
   7
 39
0.100
  6
CONTINUOUS
 10
162.91600
 20
2.68100
 30
 0
 11
162.93700
 21
2.73200
  0
LINE
  8
Kontur
 62
   7
 39
0.100
  6
CONTINUOUS
 10
162.93700
 20
2.73200
 30
 0
 11
163.00500
 21
2.90300
  0
LINE
  8
Kontur
 62
   7
 39
0.100
  6
CONTINUOUS
 10
163.00500
 20
2.90300
 30
 0
 11
163.02400
 21
2.95400
  0
LINE
  8
Kontur
 62
   7
 39
0.100
  6
CONTINUOUS
 10
163.02400
 20
2.95400
 30
 0
 11
163.04200
 21
3.00600
  0
LINE
  8
Kontur
 62
   7
 39
0.100
  6
CONTINUOUS
 10
163.04200
 20
3.00600
 30
 0
 11
163.05700
 21
3.05900
  0
LINE
  8
Kontur
 62
   7
 39
0.100
  6
CONTINUOUS
 10
163.05700
 20
3.05900
 30
 0
 11
163.10600
 21
3.23700
  0
LINE
  8
Kontur
 62
   7
 39
0.100
  6
CONTINUOUS
 10
163.10600
 20
3.23700
 30
 0
 11
163.12000
 21
3.29000
  0
LINE
  8
Kontur
 62
   7
 39
0.100
  6
CONTINUOUS
 10
163.12000
 20
3.29000
 30
 0
 11
163.13100
 21
3.34300
  0
LINE
  8
Kontur
 62
   7
 39
0.100
  6
CONTINUOUS
 10
163.13100
 20
3.34300
 30
 0
 11
163.14000
 21
3.39000
  0
LINE
  8
Kontur
 62
   7
 39
0.100
  6
CONTINUOUS
 10
163.14000
 20
3.39000
 30
 0
 11
163.17000
 21
3.57100
  0
LINE
  8
Kontur
 62
   7
 39
0.100
  6
CONTINUOUS
 10
163.17000
 20
3.57100
 30
 0
 11
163.17800
 21
3.62500
  0
LINE
  8
Kontur
 62
   7
 39
0.100
  6
CONTINUOUS
 10
163.17800
 20
3.62500
 30
 0
 11
163.18400
 21
3.67900
  0
LINE
  8
Kontur
 62
   7
 39
0.100
  6
CONTINUOUS
 10
163.18400
 20
3.67900
 30
 0
 11
163.18800
 21
3.73500
  0
LINE
  8
Kontur
 62
   7
 39
0.100
  6
CONTINUOUS
 10
163.18800
 20
3.73500
 30
 0
 11
163.19800
 21
3.91900
  0
LINE
  8
Kontur
 62
   7
 39
0.100
  6
CONTINUOUS
 10
163.19800
 20
3.91900
 30
 0
 11
163.20000
 21
3.97300
  0
LINE
  8
Kontur
 62
   7
 39
0.100
  6
CONTINUOUS
 10
163.20000
 20
3.97300
 30
 0
 11
163.20000
 21
4.02800
  0
LINE
  8
Kontur
 62
   7
 39
0.100
  6
CONTINUOUS
 10
163.20000
 20
4.02800
 30
 0
 11
163.19800
 21
4.08100
  0
LINE
  8
Kontur
 62
   7
 39
0.100
  6
CONTINUOUS
 10
163.19800
 20
4.08100
 30
 0
 11
163.18800
 21
4.26500
  0
LINE
  8
Kontur
 62
   7
 39
0.100
  6
CONTINUOUS
 10
163.18800
 20
4.26500
 30
 0
 11
163.18400
 21
4.32000
  0
LINE
  8
Kontur
 62
   7
 39
0.100
  6
CONTINUOUS
 10
163.18400
 20
4.32000
 30
 0
 11
163.17800
 21
4.37400
  0
LINE
  8
Kontur
 62
   7
 39
0.100
  6
CONTINUOUS
 10
163.17800
 20
4.37400
 30
 0
 11
163.17000
 21
4.42900
  0
LINE
  8
Kontur
 62
   7
 39
0.100
  6
CONTINUOUS
 10
163.17000
 20
4.42900
 30
 0
 11
163.14000
 21
4.61000
  0
LINE
  8
Kontur
 62
   7
 39
0.100
  6
CONTINUOUS
 10
163.14000
 20
4.61000
 30
 0
 11
163.13000
 21
4.66400
  0
LINE
  8
Kontur
 62
   7
 39
0.100
  6
CONTINUOUS
 10
163.13000
 20
4.66400
 30
 0
 11
163.11800
 21
4.71800
  0
LINE
  8
Kontur
 62
   7
 39
0.100
  6
CONTINUOUS
 10
163.11800
 20
4.71800
 30
 0
 11
163.10600
 21
4.76300
  0
LINE
  8
Kontur
 62
   7
 39
0.100
  6
CONTINUOUS
 10
163.10600
 20
4.76300
 30
 0
 11
163.05700
 21
4.94100
  0
LINE
  8
Kontur
 62
   7
 39
0.100
  6
CONTINUOUS
 10
163.05700
 20
4.94100
 30
 0
 11
163.04200
 21
4.99400
  0
LINE
  8
Kontur
 62
   7
 39
0.100
  6
CONTINUOUS
 10
163.04200
 20
4.99400
 30
 0
 11
163.02400
 21
5.04600
  0
LINE
  8
Kontur
 62
   7
 39
0.100
  6
CONTINUOUS
 10
163.02400
 20
5.04600
 30
 0
 11
163.00500
 21
5.09700
  0
LINE
  8
Kontur
 62
   7
 39
0.100
  6
CONTINUOUS
 10
163.00500
 20
5.09700
 30
 0
 11
162.93700
 21
5.26800
  0
LINE
  8
Kontur
 62
   7
 39
0.100
  6
CONTINUOUS
 10
162.93700
 20
5.26800
 30
 0
 11
162.91600
 21
5.31900
  0
LINE
  8
Kontur
 62
   7
 39
0.100
  6
CONTINUOUS
 10
162.91600
 20
5.31900
 30
 0
 11
162.89300
 21
5.36800
  0
LINE
  8
Kontur
 62
   7
 39
0.100
  6
CONTINUOUS
 10
162.89300
 20
5.36800
 30
 0
 11
162.86800
 21
5.41700
  0
LINE
  8
Kontur
 62
   7
 39
0.100
  6
CONTINUOUS
 10
162.86800
 20
5.41700
 30
 0
 11
162.78200
 21
5.57900
  0
LINE
  8
Kontur
 62
   7
 39
0.100
  6
CONTINUOUS
 10
162.78200
 20
5.57900
 30
 0
 11
162.75500
 21
5.62700
  0
LINE
  8
Kontur
 62
   7
 39
0.100
  6
CONTINUOUS
 10
162.75500
 20
5.62700
 30
 0
 11
162.72700
 21
5.67400
  0
LINE
  8
Kontur
 62
   7
 39
0.100
  6
CONTINUOUS
 10
162.72700
 20
5.67400
 30
 0
 11
162.69800
 21
5.71900
  0
LINE
  8
Kontur
 62
   7
 39
0.100
  6
CONTINUOUS
 10
162.69800
 20
5.71900
 30
 0
 11
162.59400
 21
5.87200
  0
LINE
  8
Kontur
 62
   7
 39
0.100
  6
CONTINUOUS
 10
162.59400
 20
5.87200
 30
 0
 11
162.56200
 21
5.91700
  0
LINE
  8
Kontur
 62
   7
 39
0.100
  6
CONTINUOUS
 10
162.56200
 20
5.91700
 30
 0
 11
162.52900
 21
5.96100
  0
LINE
  8
Kontur
 62
   7
 39
0.100
  6
CONTINUOUS
 10
162.52900
 20
5.96100
 30
 0
 11
162.49600
 21
6.00000
  0
LINE
  8
Kontur
 62
   7
 39
0.100
  6
CONTINUOUS
 10
162.49600
 20
6.00000
 30
 0
 11
162.37700
 21
6.14000
  0
LINE
  8
Kontur
 62
   7
 39
0.100
  6
CONTINUOUS
 10
162.37700
 20
6.14000
 30
 0
 11
162.34100
 21
6.18200
  0
LINE
  8
Kontur
 62
   7
 39
0.100
  6
CONTINUOUS
 10
162.34100
 20
6.18200
 30
 0
 11
162.30300
 21
6.22100
  0
LINE
  8
Kontur
 62
   7
 39
0.100
  6
CONTINUOUS
 10
162.30300
 20
6.22100
 30
 0
 11
162.27000
 21
6.25400
  0
LINE
  8
Kontur
 62
   7
 39
0.100
  6
CONTINUOUS
 10
162.27000
 20
6.25400
 30
 0
 11
162.13700
 21
6.38100
  0
LINE
  8
Kontur
 62
   7
 39
0.100
  6
CONTINUOUS
 10
162.13700
 20
6.38100
 30
 0
 11
162.09700
 21
6.41800
  0
LINE
  8
Kontur
 62
   7
 39
0.100
  6
CONTINUOUS
 10
162.09700
 20
6.41800
 30
 0
 11
162.05500
 21
6.45400
  0
LINE
  8
Kontur
 62
   7
 39
0.100
  6
CONTINUOUS
 10
162.05500
 20
6.45400
 30
 0
 11
162.00500
 21
6.49300
  0
LINE
  8
Kontur
 62
   7
 39
0.100
  6
CONTINUOUS
 10
162.00500
 20
6.49300
 30
 0
 11
161.85800
 21
6.60400
  0
LINE
  8
Kontur
 62
   7
 39
0.100
  6
CONTINUOUS
 10
161.85800
 20
6.60400
 30
 0
 11
161.81400
 21
6.63600
  0
LINE
  8
Kontur
 62
   7
 39
0.100
  6
CONTINUOUS
 10
161.81400
 20
6.63600
 30
 0
 11
161.76800
 21
6.66700
  0
LINE
  8
Kontur
 62
   7
 39
0.100
  6
CONTINUOUS
 10
161.76800
 20
6.66700
 30
 0
 11
161.72700
 21
6.69300
  0
LINE
  8
Kontur
 62
   7
 39
0.100
  6
CONTINUOUS
 10
161.72700
 20
6.69300
 30
 0
 11
161.56900
 21
6.78800
  0
LINE
  8
Kontur
 62
   7
 39
0.100
  6
CONTINUOUS
 10
161.56900
 20
6.78800
 30
 0
 11
161.52100
 21
6.81500
  0
LINE
  8
Kontur
 62
   7
 39
0.100
  6
CONTINUOUS
 10
161.52100
 20
6.81500
 30
 0
 11
161.47300
 21
6.84000
  0
LINE
  8
Kontur
 62
   7
 39
0.100
  6
CONTINUOUS
 10
161.47300
 20
6.84000
 30
 0
 11
161.42400
 21
6.86400
  0
LINE
  8
Kontur
 62
   7
 39
0.100
  6
CONTINUOUS
 10
161.42400
 20
6.86400
 30
 0
 11
161.25700
 21
6.94100
  0
LINE
  8
Kontur
 62
   7
 39
0.100
  6
CONTINUOUS
 10
161.25700
 20
6.94100
 30
 0
 11
161.20700
 21
6.96300
  0
LINE
  8
Kontur
 62
   7
 39
0.100
  6
CONTINUOUS
 10
161.20700
 20
6.96300
 30
 0
 11
161.15600
 21
6.98300
  0
LINE
  8
Kontur
 62
   7
 39
0.100
  6
CONTINUOUS
 10
161.15600
 20
6.98300
 30
 0
 11
161.11100
 21
7.00000
  0
LINE
  8
Kontur
 62
   7
 39
0.100
  6
CONTINUOUS
 10
161.11100
 20
7.00000
 30
 0
 11
160.93700
 21
7.05900
  0
LINE
  8
Kontur
 62
   7
 39
0.100
  6
CONTINUOUS
 10
160.93700
 20
7.05900
 30
 0
 11
160.88500
 21
7.07500
  0
LINE
  8
Kontur
 62
   7
 39
0.100
  6
CONTINUOUS
 10
160.88500
 20
7.07500
 30
 0
 11
160.83200
 21
7.09000
  0
LINE
  8
Kontur
 62
   7
 39
0.100
  6
CONTINUOUS
 10
160.83200
 20
7.09000
 30
 0
 11
160.78000
 21
7.10200
  0
LINE
  8
Kontur
 62
   7
 39
0.100
  6
CONTINUOUS
 10
160.78000
 20
7.10200
 30
 0
 11
160.60000
 21
7.14200
  0
LINE
  8
Kontur
 62
   7
 39
0.100
  6
CONTINUOUS
 10
160.60000
 20
7.14200
 30
 0
 11
160.54700
 21
7.15300
  0
LINE
  8
Kontur
 62
   7
 39
0.100
  6
CONTINUOUS
 10
160.54700
 20
7.15300
 30
 0
 11
160.49300
 21
7.16200
  0
LINE
  8
Kontur
 62
   7
 39
0.100
  6
CONTINUOUS
 10
160.49300
 20
7.16200
 30
 0
 11
160.43800
 21
7.16900
  0
LINE
  8
Kontur
 62
   7
 39
0.100
  6
CONTINUOUS
 10
160.43800
 20
7.16900
 30
 0
 11
160.25500
 21
7.18900
  0
LINE
  8
Kontur
 62
   7
 39
0.100
  6
CONTINUOUS
 10
160.25500
 20
7.18900
 30
 0
 11
160.20000
 21
7.19400
  0
LINE
  8
Kontur
 62
   7
 39
0.100
  6
CONTINUOUS
 10
160.20000
 20
7.19400
 30
 0
 11
160.14600
 21
7.19700
  0
LINE
  8
Kontur
 62
   7
 39
0.100
  6
CONTINUOUS
 10
160.14600
 20
7.19700
 30
 0
 11
160.09200
 21
7.19800
  0
LINE
  8
Kontur
 62
   7
 39
0.100
  6
CONTINUOUS
 10
160.09200
 20
7.19800
 30
 0
 11
159.90800
 21
7.19800
  0
LINE
  8
Kontur
 62
   7
 39
0.100
  6
CONTINUOUS
 10
159.90800
 20
7.19800
 30
 0
 11
159.85300
 21
7.19700
  0
LINE
  8
Kontur
 62
   7
 39
0.100
  6
CONTINUOUS
 10
159.85300
 20
7.19700
 30
 0
 11
159.79900
 21
7.19400
  0
LINE
  8
Kontur
 62
   7
 39
0.100
  6
CONTINUOUS
 10
159.79900
 20
7.19400
 30
 0
 11
159.74500
 21
7.18900
  0
LINE
  8
Kontur
 62
   7
 39
0.100
  6
CONTINUOUS
 10
159.74500
 20
7.18900
 30
 0
 11
159.56200
 21
7.16900
  0
LINE
  8
Kontur
 62
   7
 39
0.100
  6
CONTINUOUS
 10
159.56200
 20
7.16900
 30
 0
 11
159.50800
 21
7.16200
  0
LINE
  8
Kontur
 62
   7
 39
0.100
  6
CONTINUOUS
 10
159.50800
 20
7.16200
 30
 0
 11
159.45400
 21
7.15300
  0
LINE
  8
Kontur
 62
   7
 39
0.100
  6
CONTINUOUS
 10
159.45400
 20
7.15300
 30
 0
 11
159.40000
 21
7.14200
  0
LINE
  8
Kontur
 62
   7
 39
0.100
  6
CONTINUOUS
 10
159.40000
 20
7.14200
 30
 0
 11
159.22000
 21
7.10200
  0
LINE
  8
Kontur
 62
   7
 39
0.100
  6
CONTINUOUS
 10
159.22000
 20
7.10200
 30
 0
 11
159.16600
 21
7.08900
  0
LINE
  8
Kontur
 62
   7
 39
0.100
  6
CONTINUOUS
 10
159.16600
 20
7.08900
 30
 0
 11
159.11400
 21
7.07500
  0
LINE
  8
Kontur
 62
   7
 39
0.100
  6
CONTINUOUS
 10
159.11400
 20
7.07500
 30
 0
 11
159.06300
 21
7.05900
  0
LINE
  8
Kontur
 62
   7
 39
0.100
  6
CONTINUOUS
 10
159.06300
 20
7.05900
 30
 0
 11
158.88900
 21
7.00000
  0
LINE
  8
Kontur
 62
   7
 39
0.100
  6
CONTINUOUS
 10
158.88900
 20
7.00000
 30
 0
 11
158.83800
 21
6.98100
  0
LINE
  8
Kontur
 62
   7
 39
0.100
  6
CONTINUOUS
 10
158.83800
 20
6.98100
 30
 0
 11
158.78700
 21
6.96100
  0
LINE
  8
Kontur
 62
   7
 39
0.100
  6
CONTINUOUS
 10
158.78700
 20
6.96100
 30
 0
 11
158.74300
 21
6.94100
  0
LINE
  8
Kontur
 62
   7
 39
0.100
  6
CONTINUOUS
 10
158.74300
 20
6.94100
 30
 0
 11
158.57600
 21
6.86400
  0
LINE
  8
Kontur
 62
   7
 39
0.100
  6
CONTINUOUS
 10
158.57600
 20
6.86400
 30
 0
 11
158.52700
 21
6.84000
  0
LINE
  8
Kontur
 62
   7
 39
0.100
  6
CONTINUOUS
 10
158.52700
 20
6.84000
 30
 0
 11
158.47800
 21
6.81500
  0
LINE
  8
Kontur
 62
   7
 39
0.100
  6
CONTINUOUS
 10
158.47800
 20
6.81500
 30
 0
 11
158.43100
 21
6.78800
  0
LINE
  8
Kontur
 62
   7
 39
0.100
  6
CONTINUOUS
 10
158.43100
 20
6.78800
 30
 0
 11
158.27300
 21
6.69300
  0
LINE
  8
Kontur
 62
   7
 39
0.100
  6
CONTINUOUS
 10
158.27300
 20
6.69300
 30
 0
 11
158.18100
 21
6.63300
  0
LINE
  8
Kontur
 62
   7
 39
0.100
  6
CONTINUOUS
 10
158.18100
 20
6.63300
 30
 0
 11
158.14200
 21
6.60400
  0
LINE
  8
Kontur
 62
   7
 39
0.100
  6
CONTINUOUS
 10
158.14200
 20
6.60400
 30
 0
 11
157.99500
 21
6.49300
  0
LINE
  8
Kontur
 62
   7
 39
0.100
  6
CONTINUOUS
 10
157.99500
 20
6.49300
 30
 0
 11
157.95200
 21
6.45900
  0
LINE
  8
Kontur
 62
   7
 39
0.100
  6
CONTINUOUS
 10
157.95200
 20
6.45900
 30
 0
 11
157.91000
 21
6.42400
  0
LINE
  8
Kontur
 62
   7
 39
0.100
  6
CONTINUOUS
 10
157.91000
 20
6.42400
 30
 0
 11
157.86300
 21
6.38100
  0
LINE
  8
Kontur
 62
   7
 39
0.100
  6
CONTINUOUS
 10
157.86300
 20
6.38100
 30
 0
 11
157.73000
 21
6.25400
  0
LINE
  8
Kontur
 62
   7
 39
0.100
  6
CONTINUOUS
 10
157.73000
 20
6.25400
 30
 0
 11
157.69100
 21
6.21500
  0
LINE
  8
Kontur
 62
   7
 39
0.100
  6
CONTINUOUS
 10
157.69100
 20
6.21500
 30
 0
 11
157.65400
 21
6.17500
  0
LINE
  8
Kontur
 62
   7
 39
0.100
  6
CONTINUOUS
 10
157.65400
 20
6.17500
 30
 0
 11
157.62300
 21
6.14000
  0
LINE
  8
Kontur
 62
   7
 39
0.100
  6
CONTINUOUS
 10
157.62300
 20
6.14000
 30
 0
 11
157.50400
 21
6.00000
  0
LINE
  8
Kontur
 62
   7
 39
0.100
  6
CONTINUOUS
 10
157.50400
 20
6.00000
 30
 0
 11
157.46900
 21
5.95800
  0
LINE
  8
Kontur
 62
   7
 39
0.100
  6
CONTINUOUS
 10
157.46900
 20
5.95800
 30
 0
 11
157.43600
 21
5.91400
  0
LINE
  8
Kontur
 62
   7
 39
0.100
  6
CONTINUOUS
 10
157.43600
 20
5.91400
 30
 0
 11
157.40600
 21
5.87200
  0
LINE
  8
Kontur
 62
   7
 39
0.100
  6
CONTINUOUS
 10
157.40600
 20
5.87200
 30
 0
 11
157.30200
 21
5.71900
  0
LINE
  8
Kontur
 62
   7
 39
0.100
  6
CONTINUOUS
 10
157.30200
 20
5.71900
 30
 0
 11
157.27300
 21
5.67300
  0
LINE
  8
Kontur
 62
   7
 39
0.100
  6
CONTINUOUS
 10
157.27300
 20
5.67300
 30
 0
 11
157.24400
 21
5.62600
  0
LINE
  8
Kontur
 62
   7
 39
0.100
  6
CONTINUOUS
 10
157.24400
 20
5.62600
 30
 0
 11
157.21800
 21
5.57900
  0
LINE
  8
Kontur
 62
   7
 39
0.100
  6
CONTINUOUS
 10
157.21800
 20
5.57900
 30
 0
 11
157.13200
 21
5.41700
  0
LINE
  8
Kontur
 62
   7
 39
0.100
  6
CONTINUOUS
 10
157.13200
 20
5.41700
 30
 0
 11
157.10700
 21
5.36800
  0
LINE
  8
Kontur
 62
   7
 39
0.100
  6
CONTINUOUS
 10
157.10700
 20
5.36800
 30
 0
 11
157.08400
 21
5.31900
  0
LINE
  8
Kontur
 62
   7
 39
0.100
  6
CONTINUOUS
 10
157.08400
 20
5.31900
 30
 0
 11
157.06300
 21
5.26800
  0
LINE
  8
Kontur
 62
   7
 39
0.100
  6
CONTINUOUS
 10
157.06300
 20
5.26800
 30
 0
 11
156.99500
 21
5.09700
  0
LINE
  8
Kontur
 62
   7
 39
0.100
  6
CONTINUOUS
 10
156.99500
 20
5.09700
 30
 0
 11
156.97600
 21
5.04600
  0
LINE
  8
Kontur
 62
   7
 39
0.100
  6
CONTINUOUS
 10
156.97600
 20
5.04600
 30
 0
 11
156.95800
 21
4.99400
  0
LINE
  8
Kontur
 62
   7
 39
0.100
  6
CONTINUOUS
 10
156.95800
 20
4.99400
 30
 0
 11
156.94300
 21
4.94100
  0
LINE
  8
Kontur
 62
   7
 39
0.100
  6
CONTINUOUS
 10
156.94300
 20
4.94100
 30
 0
 11
156.89400
 21
4.76300
  0
LINE
  8
Kontur
 62
   7
 39
0.100
  6
CONTINUOUS
 10
156.89400
 20
4.76300
 30
 0
 11
156.88000
 21
4.71000
  0
LINE
  8
Kontur
 62
   7
 39
0.100
  6
CONTINUOUS
 10
156.88000
 20
4.71000
 30
 0
 11
156.86900
 21
4.65700
  0
LINE
  8
Kontur
 62
   7
 39
0.100
  6
CONTINUOUS
 10
156.86900
 20
4.65700
 30
 0
 11
156.86000
 21
4.61000
  0
LINE
  8
Kontur
 62
   7
 39
0.100
  6
CONTINUOUS
 10
156.86000
 20
4.61000
 30
 0
 11
156.83000
 21
4.42900
  0
LINE
  8
Kontur
 62
   7
 39
0.100
  6
CONTINUOUS
 10
156.83000
 20
4.42900
 30
 0
 11
156.82200
 21
4.37500
  0
LINE
  8
Kontur
 62
   7
 39
0.100
  6
CONTINUOUS
 10
156.82200
 20
4.37500
 30
 0
 11
156.81600
 21
4.32100
  0
LINE
  8
Kontur
 62
   7
 39
0.100
  6
CONTINUOUS
 10
156.81600
 20
4.32100
 30
 0
 11
156.81200
 21
4.26500
  0
LINE
  8
Kontur
 62
   7
 39
0.100
  6
CONTINUOUS
 10
156.81200
 20
4.26500
 30
 0
 11
156.80200
 21
4.08100
  0
LINE
  8
Kontur
 62
   7
 39
0.100
  6
CONTINUOUS
 10
156.80200
 20
4.08100
 30
 0
 11
156.80000
 21
4.02700
  0
LINE
  8
Kontur
 62
   7
 39
0.100
  6
CONTINUOUS
 10
156.80000
 20
4.02700
 30
 0
 11
156.80000
 21
3.97200
  0
LINE
  8
Kontur
 62
   7
 39
0.100
  6
CONTINUOUS
 10
156.80000
 20
3.97200
 30
 0
 11
156.80200
 21
3.91900
  0
LINE
  8
Kontur
 62
   7
 39
0.100
  6
CONTINUOUS
 10
156.80200
 20
3.91900
 30
 0
 11
156.81200
 21
3.73500
  0
LINE
  8
Kontur
 62
   7
 39
0.100
  6
CONTINUOUS
 10
156.81200
 20
3.73500
 30
 0
 11
156.81600
 21
3.68000
  0
LINE
  8
Kontur
 62
   7
 39
0.100
  6
CONTINUOUS
 10
156.81600
 20
3.68000
 30
 0
 11
156.82200
 21
3.62600
  0
LINE
  8
Kontur
 62
   7
 39
0.100
  6
CONTINUOUS
 10
156.82200
 20
3.62600
 30
 0
 11
156.83000
 21
3.57100
  0
LINE
  8
Kontur
 62
   7
 39
0.100
  6
CONTINUOUS
 10
156.83000
 20
3.57100
 30
 0
 11
156.86000
 21
3.39000
  0
LINE
  8
Kontur
 62
   7
 39
0.100
  6
CONTINUOUS
 10
156.86000
 20
3.39000
 30
 0
 11
156.87000
 21
3.33600
  0
LINE
  8
Kontur
 62
   7
 39
0.100
  6
CONTINUOUS
 10
156.87000
 20
3.33600
 30
 0
 11
156.88200
 21
3.28200
  0
LINE
  8
Kontur
 62
   7
 39
0.100
  6
CONTINUOUS
 10
156.88200
 20
3.28200
 30
 0
 11
156.89400
 21
3.23700
  0
LINE
  8
Kontur
 62
   7
 39
0.100
  6
CONTINUOUS
 10
156.89400
 20
3.23700
 30
 0
 11
156.94300
 21
3.05900
  0
LINE
  8
Kontur
 62
   7
 39
0.100
  6
CONTINUOUS
 10
156.94300
 20
3.05900
 30
 0
 11
156.95800
 21
3.00600
  0
LINE
  8
Kontur
 62
   7
 39
0.100
  6
CONTINUOUS
 10
156.95800
 20
3.00600
 30
 0
 11
156.97600
 21
2.95400
  0
LINE
  8
Kontur
 62
   7
 39
0.100
  6
CONTINUOUS
 10
156.97600
 20
2.95400
 30
 0
 11
156.99500
 21
2.90300
  0
LINE
  8
Kontur
 62
   7
 39
0.100
  6
CONTINUOUS
 10
156.99500
 20
2.90300
 30
 0
 11
157.06300
 21
2.73200
  0
LINE
  8
Kontur
 62
   7
 39
0.100
  6
CONTINUOUS
 10
157.06300
 20
2.73200
 30
 0
 11
157.08400
 21
2.68100
  0
LINE
  8
Kontur
 62
   7
 39
0.100
  6
CONTINUOUS
 10
157.08400
 20
2.68100
 30
 0
 11
157.10700
 21
2.63200
  0
LINE
  8
Kontur
 62
   7
 39
0.100
  6
CONTINUOUS
 10
157.10700
 20
2.63200
 30
 0
 11
157.13200
 21
2.58300
  0
LINE
  8
Kontur
 62
   7
 39
0.100
  6
CONTINUOUS
 10
157.13200
 20
2.58300
 30
 0
 11
157.21800
 21
2.42100
  0
LINE
  8
Kontur
 62
   7
 39
0.100
  6
CONTINUOUS
 10
157.21800
 20
2.42100
 30
 0
 11
157.24500
 21
2.37300
  0
LINE
  8
Kontur
 62
   7
 39
0.100
  6
CONTINUOUS
 10
157.24500
 20
2.37300
 30
 0
 11
157.27300
 21
2.32600
  0
LINE
  8
Kontur
 62
   7
 39
0.100
  6
CONTINUOUS
 10
157.27300
 20
2.32600
 30
 0
 11
157.30200
 21
2.28100
  0
LINE
  8
Kontur
 62
   7
 39
0.100
  6
CONTINUOUS
 10
157.30200
 20
2.28100
 30
 0
 11
157.40600
 21
2.12800
  0
LINE
  8
Kontur
 62
   7
 39
0.100
  6
CONTINUOUS
 10
157.40600
 20
2.12800
 30
 0
 11
157.43800
 21
2.08300
  0
LINE
  8
Kontur
 62
   7
 39
0.100
  6
CONTINUOUS
 10
157.43800
 20
2.08300
 30
 0
 11
157.47100
 21
2.03900
  0
LINE
  8
Kontur
 62
   7
 39
0.100
  6
CONTINUOUS
 10
157.47100
 20
2.03900
 30
 0
 11
157.50400
 21
2.00000
  0
LINE
  8
Kontur
 62
   7
 39
0.100
  6
CONTINUOUS
 10
157.50400
 20
2.00000
 30
 0
 11
157.62300
 21
1.86000
  0
LINE
  8
Kontur
 62
   7
 39
0.100
  6
CONTINUOUS
 10
157.62300
 20
1.86000
 30
 0
 11
157.65900
 21
1.81800
  0
LINE
  8
Kontur
 62
   7
 39
0.100
  6
CONTINUOUS
 10
157.65900
 20
1.81800
 30
 0
 11
157.69700
 21
1.77900
  0
LINE
  8
Kontur
 62
   7
 39
0.100
  6
CONTINUOUS
 10
157.69700
 20
1.77900
 30
 0
 11
157.73000
 21
1.74600
  0
LINE
  8
Kontur
 62
   7
 39
0.100
  6
CONTINUOUS
 10
157.73000
 20
1.74600
 30
 0
 11
157.86300
 21
1.61900
  0
LINE
  8
Kontur
 62
   7
 39
0.100
  6
CONTINUOUS
 10
157.86300
 20
1.61900
 30
 0
 11
157.90300
 21
1.58200
  0
LINE
  8
Kontur
 62
   7
 39
0.100
  6
CONTINUOUS
 10
157.90300
 20
1.58200
 30
 0
 11
157.94500
 21
1.54600
  0
LINE
  8
Kontur
 62
   7
 39
0.100
  6
CONTINUOUS
 10
157.94500
 20
1.54600
 30
 0
 11
157.99500
 21
1.50700
  0
LINE
  8
Kontur
 62
   7
 39
0.100
  6
CONTINUOUS
 10
157.99500
 20
1.50700
 30
 0
 11
158.14200
 21
1.39600
  0
LINE
  8
Kontur
 62
   7
 39
0.100
  6
CONTINUOUS
 10
158.14200
 20
1.39600
 30
 0
 11
158.18600
 21
1.36400
  0
LINE
  8
Kontur
 62
   7
 39
0.100
  6
CONTINUOUS
 10
158.18600
 20
1.36400
 30
 0
 11
158.23200
 21
1.33300
  0
LINE
  8
Kontur
 62
   7
 39
0.100
  6
CONTINUOUS
 10
158.23200
 20
1.33300
 30
 0
 11
158.27300
 21
1.30700
  0
LINE
  8
Kontur
 62
   7
 39
0.100
  6
CONTINUOUS
 10
158.27300
 20
1.30700
 30
 0
 11
158.43100
 21
1.21200
  0
LINE
  8
Kontur
 62
   7
 39
0.100
  6
CONTINUOUS
 10
158.43100
 20
1.21200
 30
 0
 11
158.47900
 21
1.18500
  0
LINE
  8
Kontur
 62
   7
 39
0.100
  6
CONTINUOUS
 10
158.47900
 20
1.18500
 30
 0
 11
158.52700
 21
1.16000
  0
LINE
  8
Kontur
 62
   7
 39
0.100
  6
CONTINUOUS
 10
158.52700
 20
1.16000
 30
 0
 11
158.57600
 21
1.13600
  0
LINE
  8
Kontur
 62
   7
 39
0.100
  6
CONTINUOUS
 10
158.57600
 20
1.13600
 30
 0
 11
158.74300
 21
1.05900
  0
LINE
  8
Kontur
 62
   7
 39
0.100
  6
CONTINUOUS
 10
158.74300
 20
1.05900
 30
 0
 11
158.79300
 21
1.03700
  0
LINE
  8
Kontur
 62
   7
 39
0.100
  6
CONTINUOUS
 10
158.79300
 20
1.03700
 30
 0
 11
158.84400
 21
1.01700
  0
LINE
  8
Kontur
 62
   7
 39
0.100
  6
CONTINUOUS
 10
158.84400
 20
1.01700
 30
 0
 11
158.88900
 21
1.00000
  0
LINE
  8
Kontur
 62
   7
 39
0.100
  6
CONTINUOUS
 10
158.88900
 20
1.00000
 30
 0
 11
159.06300
 21
0.94100
  0
LINE
  8
Kontur
 62
   7
 39
0.100
  6
CONTINUOUS
 10
159.06300
 20
0.94100
 30
 0
 11
159.11500
 21
0.92500
  0
LINE
  8
Kontur
 62
   7
 39
0.100
  6
CONTINUOUS
 10
159.11500
 20
0.92500
 30
 0
 11
159.16800
 21
0.91000
  0
LINE
  8
Kontur
 62
   7
 39
0.100
  6
CONTINUOUS
 10
159.16800
 20
0.91000
 30
 0
 11
159.22000
 21
0.89800
  0
LINE
  8
Kontur
 62
   7
 39
0.100
  6
CONTINUOUS
 10
159.22000
 20
0.89800
 30
 0
 11
159.40000
 21
0.85800
  0
LINE
  8
Kontur
 62
   7
 39
0.100
  6
CONTINUOUS
 10
159.40000
 20
0.85800
 30
 0
 11
159.45300
 21
0.84700
  0
LINE
  8
Kontur
 62
   7
 39
0.100
  6
CONTINUOUS
 10
159.45300
 20
0.84700
 30
 0
 11
159.50700
 21
0.83800
  0
LINE
  8
Kontur
 62
   7
 39
0.100
  6
CONTINUOUS
 10
159.50700
 20
0.83800
 30
 0
 11
159.56200
 21
0.83100
  0
LINE
  8
Kontur
 62
   7
 39
0.100
  6
CONTINUOUS
 10
159.56200
 20
0.83100
 30
 0
 11
159.74500
 21
0.81100
  0
LINE
  8
Kontur
 62
   7
 39
0.100
  6
CONTINUOUS
 10
159.74500
 20
0.81100
 30
 0
 11
159.80000
 21
0.80600
  0
LINE
  8
Kontur
 62
   7
 39
0.100
  6
CONTINUOUS
 10
159.80000
 20
0.80600
 30
 0
 11
159.85400
 21
0.80300
  0
LINE
  8
Kontur
 62
   7
 39
0.100
  6
CONTINUOUS
 10
159.85400
 20
0.80300
 30
 0
 11
159.90800
 21
0.80200
  0
LINE
  8
Kontur
 62
   7
 39
0.100
  6
CONTINUOUS
 10
159.90800
 20
0.80200
 30
 0
 11
160.09200
 21
0.80200
  0
LINE
  8
Kontur
 62
   7
 39
0.100
  6
CONTINUOUS
 10
160.09200
 20
0.80200
 30
 0
 11
160.14700
 21
0.80300
  0
CIRCLE
  8
Kontur
 62
   7
 39
0.100
  6
CONTINUOUS
 10
160.00000
 20
4.00000
 30
 0
 40
1.70000
  0
LINE
  8
Kontur
 62
   7
 39
0.100
  6
CONTINUOUS
 10
4.14700
 20
0.80300
 30
 0
 11
4.20100
 21
0.80600
  0
LINE
  8
Kontur
 62
   7
 39
0.100
  6
CONTINUOUS
 10
4.20100
 20
0.80600
 30
 0
 11
4.25500
 21
0.81100
  0
LINE
  8
Kontur
 62
   7
 39
0.100
  6
CONTINUOUS
 10
4.25500
 20
0.81100
 30
 0
 11
4.43800
 21
0.83100
  0
LINE
  8
Kontur
 62
   7
 39
0.100
  6
CONTINUOUS
 10
4.43800
 20
0.83100
 30
 0
 11
4.49200
 21
0.83800
  0
LINE
  8
Kontur
 62
   7
 39
0.100
  6
CONTINUOUS
 10
4.49200
 20
0.83800
 30
 0
 11
4.54600
 21
0.84700
  0
LINE
  8
Kontur
 62
   7
 39
0.100
  6
CONTINUOUS
 10
4.54600
 20
0.84700
 30
 0
 11
4.60000
 21
0.85800
  0
LINE
  8
Kontur
 62
   7
 39
0.100
  6
CONTINUOUS
 10
4.60000
 20
0.85800
 30
 0
 11
4.78000
 21
0.89800
  0
LINE
  8
Kontur
 62
   7
 39
0.100
  6
CONTINUOUS
 10
4.78000
 20
0.89800
 30
 0
 11
4.83400
 21
0.91100
  0
LINE
  8
Kontur
 62
   7
 39
0.100
  6
CONTINUOUS
 10
4.83400
 20
0.91100
 30
 0
 11
4.88600
 21
0.92500
  0
LINE
  8
Kontur
 62
   7
 39
0.100
  6
CONTINUOUS
 10
4.88600
 20
0.92500
 30
 0
 11
4.93700
 21
0.94100
  0
LINE
  8
Kontur
 62
   7
 39
0.100
  6
CONTINUOUS
 10
4.93700
 20
0.94100
 30
 0
 11
5.11100
 21
1.00000
  0
LINE
  8
Kontur
 62
   7
 39
0.100
  6
CONTINUOUS
 10
5.11100
 20
1.00000
 30
 0
 11
5.16200
 21
1.01900
  0
LINE
  8
Kontur
 62
   7
 39
0.100
  6
CONTINUOUS
 10
5.16200
 20
1.01900
 30
 0
 11
5.21300
 21
1.03900
  0
LINE
  8
Kontur
 62
   7
 39
0.100
  6
CONTINUOUS
 10
5.21300
 20
1.03900
 30
 0
 11
5.25700
 21
1.05900
  0
LINE
  8
Kontur
 62
   7
 39
0.100
  6
CONTINUOUS
 10
5.25700
 20
1.05900
 30
 0
 11
5.42400
 21
1.13600
  0
LINE
  8
Kontur
 62
   7
 39
0.100
  6
CONTINUOUS
 10
5.42400
 20
1.13600
 30
 0
 11
5.47300
 21
1.16000
  0
LINE
  8
Kontur
 62
   7
 39
0.100
  6
CONTINUOUS
 10
5.47300
 20
1.16000
 30
 0
 11
5.52200
 21
1.18500
  0
LINE
  8
Kontur
 62
   7
 39
0.100
  6
CONTINUOUS
 10
5.52200
 20
1.18500
 30
 0
 11
5.56900
 21
1.21200
  0
LINE
  8
Kontur
 62
   7
 39
0.100
  6
CONTINUOUS
 10
5.56900
 20
1.21200
 30
 0
 11
5.72700
 21
1.30700
  0
LINE
  8
Kontur
 62
   7
 39
0.100
  6
CONTINUOUS
 10
5.72700
 20
1.30700
 30
 0
 11
5.81900
 21
1.36700
  0
LINE
  8
Kontur
 62
   7
 39
0.100
  6
CONTINUOUS
 10
5.81900
 20
1.36700
 30
 0
 11
5.85800
 21
1.39600
  0
LINE
  8
Kontur
 62
   7
 39
0.100
  6
CONTINUOUS
 10
5.85800
 20
1.39600
 30
 0
 11
6.00500
 21
1.50700
  0
LINE
  8
Kontur
 62
   7
 39
0.100
  6
CONTINUOUS
 10
6.00500
 20
1.50700
 30
 0
 11
6.04800
 21
1.54100
  0
LINE
  8
Kontur
 62
   7
 39
0.100
  6
CONTINUOUS
 10
6.04800
 20
1.54100
 30
 0
 11
6.09000
 21
1.57600
  0
LINE
  8
Kontur
 62
   7
 39
0.100
  6
CONTINUOUS
 10
6.09000
 20
1.57600
 30
 0
 11
6.13700
 21
1.61900
  0
LINE
  8
Kontur
 62
   7
 39
0.100
  6
CONTINUOUS
 10
6.13700
 20
1.61900
 30
 0
 11
6.27000
 21
1.74600
  0
LINE
  8
Kontur
 62
   7
 39
0.100
  6
CONTINUOUS
 10
6.27000
 20
1.74600
 30
 0
 11
6.30900
 21
1.78500
  0
LINE
  8
Kontur
 62
   7
 39
0.100
  6
CONTINUOUS
 10
6.30900
 20
1.78500
 30
 0
 11
6.34600
 21
1.82500
  0
LINE
  8
Kontur
 62
   7
 39
0.100
  6
CONTINUOUS
 10
6.34600
 20
1.82500
 30
 0
 11
6.37700
 21
1.86000
  0
LINE
  8
Kontur
 62
   7
 39
0.100
  6
CONTINUOUS
 10
6.37700
 20
1.86000
 30
 0
 11
6.49600
 21
2.00000
  0
LINE
  8
Kontur
 62
   7
 39
0.100
  6
CONTINUOUS
 10
6.49600
 20
2.00000
 30
 0
 11
6.53100
 21
2.04200
  0
LINE
  8
Kontur
 62
   7
 39
0.100
  6
CONTINUOUS
 10
6.53100
 20
2.04200
 30
 0
 11
6.56400
 21
2.08600
  0
LINE
  8
Kontur
 62
   7
 39
0.100
  6
CONTINUOUS
 10
6.56400
 20
2.08600
 30
 0
 11
6.59400
 21
2.12800
  0
LINE
  8
Kontur
 62
   7
 39
0.100
  6
CONTINUOUS
 10
6.59400
 20
2.12800
 30
 0
 11
6.69800
 21
2.28100
  0
LINE
  8
Kontur
 62
   7
 39
0.100
  6
CONTINUOUS
 10
6.69800
 20
2.28100
 30
 0
 11
6.72700
 21
2.32700
  0
LINE
  8
Kontur
 62
   7
 39
0.100
  6
CONTINUOUS
 10
6.72700
 20
2.32700
 30
 0
 11
6.75600
 21
2.37400
  0
LINE
  8
Kontur
 62
   7
 39
0.100
  6
CONTINUOUS
 10
6.75600
 20
2.37400
 30
 0
 11
6.78200
 21
2.42100
  0
LINE
  8
Kontur
 62
   7
 39
0.100
  6
CONTINUOUS
 10
6.78200
 20
2.42100
 30
 0
 11
6.86800
 21
2.58300
  0
LINE
  8
Kontur
 62
   7
 39
0.100
  6
CONTINUOUS
 10
6.86800
 20
2.58300
 30
 0
 11
6.89300
 21
2.63200
  0
LINE
  8
Kontur
 62
   7
 39
0.100
  6
CONTINUOUS
 10
6.89300
 20
2.63200
 30
 0
 11
6.91600
 21
2.68100
  0
LINE
  8
Kontur
 62
   7
 39
0.100
  6
CONTINUOUS
 10
6.91600
 20
2.68100
 30
 0
 11
6.93700
 21
2.73200
  0
LINE
  8
Kontur
 62
   7
 39
0.100
  6
CONTINUOUS
 10
6.93700
 20
2.73200
 30
 0
 11
7.00500
 21
2.90300
  0
LINE
  8
Kontur
 62
   7
 39
0.100
  6
CONTINUOUS
 10
7.00500
 20
2.90300
 30
 0
 11
7.02400
 21
2.95400
  0
LINE
  8
Kontur
 62
   7
 39
0.100
  6
CONTINUOUS
 10
7.02400
 20
2.95400
 30
 0
 11
7.04200
 21
3.00600
  0
LINE
  8
Kontur
 62
   7
 39
0.100
  6
CONTINUOUS
 10
7.04200
 20
3.00600
 30
 0
 11
7.05700
 21
3.05900
  0
LINE
  8
Kontur
 62
   7
 39
0.100
  6
CONTINUOUS
 10
7.05700
 20
3.05900
 30
 0
 11
7.10600
 21
3.23700
  0
LINE
  8
Kontur
 62
   7
 39
0.100
  6
CONTINUOUS
 10
7.10600
 20
3.23700
 30
 0
 11
7.12000
 21
3.29000
  0
LINE
  8
Kontur
 62
   7
 39
0.100
  6
CONTINUOUS
 10
7.12000
 20
3.29000
 30
 0
 11
7.13100
 21
3.34300
  0
LINE
  8
Kontur
 62
   7
 39
0.100
  6
CONTINUOUS
 10
7.13100
 20
3.34300
 30
 0
 11
7.14000
 21
3.39000
  0
LINE
  8
Kontur
 62
   7
 39
0.100
  6
CONTINUOUS
 10
7.14000
 20
3.39000
 30
 0
 11
7.17000
 21
3.57100
  0
LINE
  8
Kontur
 62
   7
 39
0.100
  6
CONTINUOUS
 10
7.17000
 20
3.57100
 30
 0
 11
7.17800
 21
3.62500
  0
LINE
  8
Kontur
 62
   7
 39
0.100
  6
CONTINUOUS
 10
7.17800
 20
3.62500
 30
 0
 11
7.18400
 21
3.67900
  0
LINE
  8
Kontur
 62
   7
 39
0.100
  6
CONTINUOUS
 10
7.18400
 20
3.67900
 30
 0
 11
7.18800
 21
3.73500
  0
LINE
  8
Kontur
 62
   7
 39
0.100
  6
CONTINUOUS
 10
7.18800
 20
3.73500
 30
 0
 11
7.19800
 21
3.91900
  0
LINE
  8
Kontur
 62
   7
 39
0.100
  6
CONTINUOUS
 10
7.19800
 20
3.91900
 30
 0
 11
7.20000
 21
3.97300
  0
LINE
  8
Kontur
 62
   7
 39
0.100
  6
CONTINUOUS
 10
7.20000
 20
3.97300
 30
 0
 11
7.20000
 21
4.02800
  0
LINE
  8
Kontur
 62
   7
 39
0.100
  6
CONTINUOUS
 10
7.20000
 20
4.02800
 30
 0
 11
7.19800
 21
4.08100
  0
LINE
  8
Kontur
 62
   7
 39
0.100
  6
CONTINUOUS
 10
7.19800
 20
4.08100
 30
 0
 11
7.18800
 21
4.26500
  0
LINE
  8
Kontur
 62
   7
 39
0.100
  6
CONTINUOUS
 10
7.18800
 20
4.26500
 30
 0
 11
7.18400
 21
4.32000
  0
LINE
  8
Kontur
 62
   7
 39
0.100
  6
CONTINUOUS
 10
7.18400
 20
4.32000
 30
 0
 11
7.17800
 21
4.37400
  0
LINE
  8
Kontur
 62
   7
 39
0.100
  6
CONTINUOUS
 10
7.17800
 20
4.37400
 30
 0
 11
7.17000
 21
4.42900
  0
LINE
  8
Kontur
 62
   7
 39
0.100
  6
CONTINUOUS
 10
7.17000
 20
4.42900
 30
 0
 11
7.14000
 21
4.61000
  0
LINE
  8
Kontur
 62
   7
 39
0.100
  6
CONTINUOUS
 10
7.14000
 20
4.61000
 30
 0
 11
7.13000
 21
4.66400
  0
LINE
  8
Kontur
 62
   7
 39
0.100
  6
CONTINUOUS
 10
7.13000
 20
4.66400
 30
 0
 11
7.11800
 21
4.71800
  0
LINE
  8
Kontur
 62
   7
 39
0.100
  6
CONTINUOUS
 10
7.11800
 20
4.71800
 30
 0
 11
7.10600
 21
4.76300
  0
LINE
  8
Kontur
 62
   7
 39
0.100
  6
CONTINUOUS
 10
7.10600
 20
4.76300
 30
 0
 11
7.05700
 21
4.94100
  0
LINE
  8
Kontur
 62
   7
 39
0.100
  6
CONTINUOUS
 10
7.05700
 20
4.94100
 30
 0
 11
7.04200
 21
4.99400
  0
LINE
  8
Kontur
 62
   7
 39
0.100
  6
CONTINUOUS
 10
7.04200
 20
4.99400
 30
 0
 11
7.02400
 21
5.04600
  0
LINE
  8
Kontur
 62
   7
 39
0.100
  6
CONTINUOUS
 10
7.02400
 20
5.04600
 30
 0
 11
7.00500
 21
5.09700
  0
LINE
  8
Kontur
 62
   7
 39
0.100
  6
CONTINUOUS
 10
7.00500
 20
5.09700
 30
 0
 11
6.93700
 21
5.26800
  0
LINE
  8
Kontur
 62
   7
 39
0.100
  6
CONTINUOUS
 10
6.93700
 20
5.26800
 30
 0
 11
6.91600
 21
5.31900
  0
LINE
  8
Kontur
 62
   7
 39
0.100
  6
CONTINUOUS
 10
6.91600
 20
5.31900
 30
 0
 11
6.89300
 21
5.36800
  0
LINE
  8
Kontur
 62
   7
 39
0.100
  6
CONTINUOUS
 10
6.89300
 20
5.36800
 30
 0
 11
6.86800
 21
5.41700
  0
LINE
  8
Kontur
 62
   7
 39
0.100
  6
CONTINUOUS
 10
6.86800
 20
5.41700
 30
 0
 11
6.78200
 21
5.57900
  0
LINE
  8
Kontur
 62
   7
 39
0.100
  6
CONTINUOUS
 10
6.78200
 20
5.57900
 30
 0
 11
6.75500
 21
5.62700
  0
LINE
  8
Kontur
 62
   7
 39
0.100
  6
CONTINUOUS
 10
6.75500
 20
5.62700
 30
 0
 11
6.72700
 21
5.67400
  0
LINE
  8
Kontur
 62
   7
 39
0.100
  6
CONTINUOUS
 10
6.72700
 20
5.67400
 30
 0
 11
6.69800
 21
5.71900
  0
LINE
  8
Kontur
 62
   7
 39
0.100
  6
CONTINUOUS
 10
6.69800
 20
5.71900
 30
 0
 11
6.59400
 21
5.87200
  0
LINE
  8
Kontur
 62
   7
 39
0.100
  6
CONTINUOUS
 10
6.59400
 20
5.87200
 30
 0
 11
6.56200
 21
5.91700
  0
LINE
  8
Kontur
 62
   7
 39
0.100
  6
CONTINUOUS
 10
6.56200
 20
5.91700
 30
 0
 11
6.52900
 21
5.96100
  0
LINE
  8
Kontur
 62
   7
 39
0.100
  6
CONTINUOUS
 10
6.52900
 20
5.96100
 30
 0
 11
6.49600
 21
6.00000
  0
LINE
  8
Kontur
 62
   7
 39
0.100
  6
CONTINUOUS
 10
6.49600
 20
6.00000
 30
 0
 11
6.37700
 21
6.14000
  0
LINE
  8
Kontur
 62
   7
 39
0.100
  6
CONTINUOUS
 10
6.37700
 20
6.14000
 30
 0
 11
6.34100
 21
6.18200
  0
LINE
  8
Kontur
 62
   7
 39
0.100
  6
CONTINUOUS
 10
6.34100
 20
6.18200
 30
 0
 11
6.30300
 21
6.22100
  0
LINE
  8
Kontur
 62
   7
 39
0.100
  6
CONTINUOUS
 10
6.30300
 20
6.22100
 30
 0
 11
6.27000
 21
6.25400
  0
LINE
  8
Kontur
 62
   7
 39
0.100
  6
CONTINUOUS
 10
6.27000
 20
6.25400
 30
 0
 11
6.13700
 21
6.38100
  0
LINE
  8
Kontur
 62
   7
 39
0.100
  6
CONTINUOUS
 10
6.13700
 20
6.38100
 30
 0
 11
6.09700
 21
6.41800
  0
LINE
  8
Kontur
 62
   7
 39
0.100
  6
CONTINUOUS
 10
6.09700
 20
6.41800
 30
 0
 11
6.05500
 21
6.45400
  0
LINE
  8
Kontur
 62
   7
 39
0.100
  6
CONTINUOUS
 10
6.05500
 20
6.45400
 30
 0
 11
6.00500
 21
6.49300
  0
LINE
  8
Kontur
 62
   7
 39
0.100
  6
CONTINUOUS
 10
6.00500
 20
6.49300
 30
 0
 11
5.85800
 21
6.60400
  0
LINE
  8
Kontur
 62
   7
 39
0.100
  6
CONTINUOUS
 10
5.85800
 20
6.60400
 30
 0
 11
5.81400
 21
6.63600
  0
LINE
  8
Kontur
 62
   7
 39
0.100
  6
CONTINUOUS
 10
5.81400
 20
6.63600
 30
 0
 11
5.76800
 21
6.66700
  0
LINE
  8
Kontur
 62
   7
 39
0.100
  6
CONTINUOUS
 10
5.76800
 20
6.66700
 30
 0
 11
5.72700
 21
6.69300
  0
LINE
  8
Kontur
 62
   7
 39
0.100
  6
CONTINUOUS
 10
5.72700
 20
6.69300
 30
 0
 11
5.56900
 21
6.78800
  0
LINE
  8
Kontur
 62
   7
 39
0.100
  6
CONTINUOUS
 10
5.56900
 20
6.78800
 30
 0
 11
5.52100
 21
6.81500
  0
LINE
  8
Kontur
 62
   7
 39
0.100
  6
CONTINUOUS
 10
5.52100
 20
6.81500
 30
 0
 11
5.47300
 21
6.84000
  0
LINE
  8
Kontur
 62
   7
 39
0.100
  6
CONTINUOUS
 10
5.47300
 20
6.84000
 30
 0
 11
5.42400
 21
6.86400
  0
LINE
  8
Kontur
 62
   7
 39
0.100
  6
CONTINUOUS
 10
5.42400
 20
6.86400
 30
 0
 11
5.25700
 21
6.94100
  0
LINE
  8
Kontur
 62
   7
 39
0.100
  6
CONTINUOUS
 10
5.25700
 20
6.94100
 30
 0
 11
5.20700
 21
6.96300
  0
LINE
  8
Kontur
 62
   7
 39
0.100
  6
CONTINUOUS
 10
5.20700
 20
6.96300
 30
 0
 11
5.15600
 21
6.98300
  0
LINE
  8
Kontur
 62
   7
 39
0.100
  6
CONTINUOUS
 10
5.15600
 20
6.98300
 30
 0
 11
5.11100
 21
7.00000
  0
LINE
  8
Kontur
 62
   7
 39
0.100
  6
CONTINUOUS
 10
5.11100
 20
7.00000
 30
 0
 11
4.93700
 21
7.05900
  0
LINE
  8
Kontur
 62
   7
 39
0.100
  6
CONTINUOUS
 10
4.93700
 20
7.05900
 30
 0
 11
4.88500
 21
7.07500
  0
LINE
  8
Kontur
 62
   7
 39
0.100
  6
CONTINUOUS
 10
4.88500
 20
7.07500
 30
 0
 11
4.83200
 21
7.09000
  0
LINE
  8
Kontur
 62
   7
 39
0.100
  6
CONTINUOUS
 10
4.83200
 20
7.09000
 30
 0
 11
4.78000
 21
7.10200
  0
LINE
  8
Kontur
 62
   7
 39
0.100
  6
CONTINUOUS
 10
4.78000
 20
7.10200
 30
 0
 11
4.60000
 21
7.14200
  0
LINE
  8
Kontur
 62
   7
 39
0.100
  6
CONTINUOUS
 10
4.60000
 20
7.14200
 30
 0
 11
4.54700
 21
7.15300
  0
LINE
  8
Kontur
 62
   7
 39
0.100
  6
CONTINUOUS
 10
4.54700
 20
7.15300
 30
 0
 11
4.49300
 21
7.16200
  0
LINE
  8
Kontur
 62
   7
 39
0.100
  6
CONTINUOUS
 10
4.49300
 20
7.16200
 30
 0
 11
4.43800
 21
7.16900
  0
LINE
  8
Kontur
 62
   7
 39
0.100
  6
CONTINUOUS
 10
4.43800
 20
7.16900
 30
 0
 11
4.25500
 21
7.18900
  0
LINE
  8
Kontur
 62
   7
 39
0.100
  6
CONTINUOUS
 10
4.25500
 20
7.18900
 30
 0
 11
4.20000
 21
7.19400
  0
LINE
  8
Kontur
 62
   7
 39
0.100
  6
CONTINUOUS
 10
4.20000
 20
7.19400
 30
 0
 11
4.14600
 21
7.19700
  0
LINE
  8
Kontur
 62
   7
 39
0.100
  6
CONTINUOUS
 10
4.14600
 20
7.19700
 30
 0
 11
4.09200
 21
7.19800
  0
LINE
  8
Kontur
 62
   7
 39
0.100
  6
CONTINUOUS
 10
4.09200
 20
7.19800
 30
 0
 11
3.90800
 21
7.19800
  0
LINE
  8
Kontur
 62
   7
 39
0.100
  6
CONTINUOUS
 10
3.90800
 20
7.19800
 30
 0
 11
3.85300
 21
7.19700
  0
LINE
  8
Kontur
 62
   7
 39
0.100
  6
CONTINUOUS
 10
3.85300
 20
7.19700
 30
 0
 11
3.79900
 21
7.19400
  0
LINE
  8
Kontur
 62
   7
 39
0.100
  6
CONTINUOUS
 10
3.79900
 20
7.19400
 30
 0
 11
3.74500
 21
7.18900
  0
LINE
  8
Kontur
 62
   7
 39
0.100
  6
CONTINUOUS
 10
3.74500
 20
7.18900
 30
 0
 11
3.56200
 21
7.16900
  0
LINE
  8
Kontur
 62
   7
 39
0.100
  6
CONTINUOUS
 10
3.56200
 20
7.16900
 30
 0
 11
3.50800
 21
7.16200
  0
LINE
  8
Kontur
 62
   7
 39
0.100
  6
CONTINUOUS
 10
3.50800
 20
7.16200
 30
 0
 11
3.45400
 21
7.15300
  0
LINE
  8
Kontur
 62
   7
 39
0.100
  6
CONTINUOUS
 10
3.45400
 20
7.15300
 30
 0
 11
3.40000
 21
7.14200
  0
LINE
  8
Kontur
 62
   7
 39
0.100
  6
CONTINUOUS
 10
3.40000
 20
7.14200
 30
 0
 11
3.22000
 21
7.10200
  0
LINE
  8
Kontur
 62
   7
 39
0.100
  6
CONTINUOUS
 10
3.22000
 20
7.10200
 30
 0
 11
3.16600
 21
7.08900
  0
LINE
  8
Kontur
 62
   7
 39
0.100
  6
CONTINUOUS
 10
3.16600
 20
7.08900
 30
 0
 11
3.11400
 21
7.07500
  0
LINE
  8
Kontur
 62
   7
 39
0.100
  6
CONTINUOUS
 10
3.11400
 20
7.07500
 30
 0
 11
3.06300
 21
7.05900
  0
LINE
  8
Kontur
 62
   7
 39
0.100
  6
CONTINUOUS
 10
3.06300
 20
7.05900
 30
 0
 11
2.88900
 21
7.00000
  0
LINE
  8
Kontur
 62
   7
 39
0.100
  6
CONTINUOUS
 10
2.88900
 20
7.00000
 30
 0
 11
2.83800
 21
6.98100
  0
LINE
  8
Kontur
 62
   7
 39
0.100
  6
CONTINUOUS
 10
2.83800
 20
6.98100
 30
 0
 11
2.78700
 21
6.96100
  0
LINE
  8
Kontur
 62
   7
 39
0.100
  6
CONTINUOUS
 10
2.78700
 20
6.96100
 30
 0
 11
2.74300
 21
6.94100
  0
LINE
  8
Kontur
 62
   7
 39
0.100
  6
CONTINUOUS
 10
2.74300
 20
6.94100
 30
 0
 11
2.57600
 21
6.86400
  0
LINE
  8
Kontur
 62
   7
 39
0.100
  6
CONTINUOUS
 10
2.57600
 20
6.86400
 30
 0
 11
2.52700
 21
6.84000
  0
LINE
  8
Kontur
 62
   7
 39
0.100
  6
CONTINUOUS
 10
2.52700
 20
6.84000
 30
 0
 11
2.47800
 21
6.81500
  0
LINE
  8
Kontur
 62
   7
 39
0.100
  6
CONTINUOUS
 10
2.47800
 20
6.81500
 30
 0
 11
2.43100
 21
6.78800
  0
LINE
  8
Kontur
 62
   7
 39
0.100
  6
CONTINUOUS
 10
2.43100
 20
6.78800
 30
 0
 11
2.27300
 21
6.69300
  0
LINE
  8
Kontur
 62
   7
 39
0.100
  6
CONTINUOUS
 10
2.27300
 20
6.69300
 30
 0
 11
2.18100
 21
6.63300
  0
LINE
  8
Kontur
 62
   7
 39
0.100
  6
CONTINUOUS
 10
2.18100
 20
6.63300
 30
 0
 11
2.14200
 21
6.60400
  0
LINE
  8
Kontur
 62
   7
 39
0.100
  6
CONTINUOUS
 10
2.14200
 20
6.60400
 30
 0
 11
1.99500
 21
6.49300
  0
LINE
  8
Kontur
 62
   7
 39
0.100
  6
CONTINUOUS
 10
1.99500
 20
6.49300
 30
 0
 11
1.95200
 21
6.45900
  0
LINE
  8
Kontur
 62
   7
 39
0.100
  6
CONTINUOUS
 10
1.95200
 20
6.45900
 30
 0
 11
1.91000
 21
6.42400
  0
LINE
  8
Kontur
 62
   7
 39
0.100
  6
CONTINUOUS
 10
1.91000
 20
6.42400
 30
 0
 11
1.86300
 21
6.38100
  0
LINE
  8
Kontur
 62
   7
 39
0.100
  6
CONTINUOUS
 10
1.86300
 20
6.38100
 30
 0
 11
1.73000
 21
6.25400
  0
LINE
  8
Kontur
 62
   7
 39
0.100
  6
CONTINUOUS
 10
1.73000
 20
6.25400
 30
 0
 11
1.69100
 21
6.21500
  0
LINE
  8
Kontur
 62
   7
 39
0.100
  6
CONTINUOUS
 10
1.69100
 20
6.21500
 30
 0
 11
1.65400
 21
6.17500
  0
LINE
  8
Kontur
 62
   7
 39
0.100
  6
CONTINUOUS
 10
1.65400
 20
6.17500
 30
 0
 11
1.62300
 21
6.14000
  0
LINE
  8
Kontur
 62
   7
 39
0.100
  6
CONTINUOUS
 10
1.62300
 20
6.14000
 30
 0
 11
1.50400
 21
6.00000
  0
LINE
  8
Kontur
 62
   7
 39
0.100
  6
CONTINUOUS
 10
1.50400
 20
6.00000
 30
 0
 11
1.46900
 21
5.95800
  0
LINE
  8
Kontur
 62
   7
 39
0.100
  6
CONTINUOUS
 10
1.46900
 20
5.95800
 30
 0
 11
1.43600
 21
5.91400
  0
LINE
  8
Kontur
 62
   7
 39
0.100
  6
CONTINUOUS
 10
1.43600
 20
5.91400
 30
 0
 11
1.40600
 21
5.87200
  0
LINE
  8
Kontur
 62
   7
 39
0.100
  6
CONTINUOUS
 10
1.40600
 20
5.87200
 30
 0
 11
1.30200
 21
5.71900
  0
LINE
  8
Kontur
 62
   7
 39
0.100
  6
CONTINUOUS
 10
1.30200
 20
5.71900
 30
 0
 11
1.27300
 21
5.67300
  0
LINE
  8
Kontur
 62
   7
 39
0.100
  6
CONTINUOUS
 10
1.27300
 20
5.67300
 30
 0
 11
1.24400
 21
5.62600
  0
LINE
  8
Kontur
 62
   7
 39
0.100
  6
CONTINUOUS
 10
1.24400
 20
5.62600
 30
 0
 11
1.21800
 21
5.57900
  0
LINE
  8
Kontur
 62
   7
 39
0.100
  6
CONTINUOUS
 10
1.21800
 20
5.57900
 30
 0
 11
1.13200
 21
5.41700
  0
LINE
  8
Kontur
 62
   7
 39
0.100
  6
CONTINUOUS
 10
1.13200
 20
5.41700
 30
 0
 11
1.10700
 21
5.36800
  0
LINE
  8
Kontur
 62
   7
 39
0.100
  6
CONTINUOUS
 10
1.10700
 20
5.36800
 30
 0
 11
1.08400
 21
5.31900
  0
LINE
  8
Kontur
 62
   7
 39
0.100
  6
CONTINUOUS
 10
1.08400
 20
5.31900
 30
 0
 11
1.06300
 21
5.26800
  0
LINE
  8
Kontur
 62
   7
 39
0.100
  6
CONTINUOUS
 10
1.06300
 20
5.26800
 30
 0
 11
0.99500
 21
5.09700
  0
LINE
  8
Kontur
 62
   7
 39
0.100
  6
CONTINUOUS
 10
0.99500
 20
5.09700
 30
 0
 11
0.97600
 21
5.04600
  0
LINE
  8
Kontur
 62
   7
 39
0.100
  6
CONTINUOUS
 10
0.97600
 20
5.04600
 30
 0
 11
0.95800
 21
4.99400
  0
LINE
  8
Kontur
 62
   7
 39
0.100
  6
CONTINUOUS
 10
0.95800
 20
4.99400
 30
 0
 11
0.94300
 21
4.94100
  0
LINE
  8
Kontur
 62
   7
 39
0.100
  6
CONTINUOUS
 10
0.94300
 20
4.94100
 30
 0
 11
0.89400
 21
4.76300
  0
LINE
  8
Kontur
 62
   7
 39
0.100
  6
CONTINUOUS
 10
0.89400
 20
4.76300
 30
 0
 11
0.88000
 21
4.71000
  0
LINE
  8
Kontur
 62
   7
 39
0.100
  6
CONTINUOUS
 10
0.88000
 20
4.71000
 30
 0
 11
0.86900
 21
4.65700
  0
LINE
  8
Kontur
 62
   7
 39
0.100
  6
CONTINUOUS
 10
0.86900
 20
4.65700
 30
 0
 11
0.86000
 21
4.61000
  0
LINE
  8
Kontur
 62
   7
 39
0.100
  6
CONTINUOUS
 10
0.86000
 20
4.61000
 30
 0
 11
0.83000
 21
4.42900
  0
LINE
  8
Kontur
 62
   7
 39
0.100
  6
CONTINUOUS
 10
0.83000
 20
4.42900
 30
 0
 11
0.82200
 21
4.37500
  0
LINE
  8
Kontur
 62
   7
 39
0.100
  6
CONTINUOUS
 10
0.82200
 20
4.37500
 30
 0
 11
0.81600
 21
4.32100
  0
LINE
  8
Kontur
 62
   7
 39
0.100
  6
CONTINUOUS
 10
0.81600
 20
4.32100
 30
 0
 11
0.81200
 21
4.26500
  0
LINE
  8
Kontur
 62
   7
 39
0.100
  6
CONTINUOUS
 10
0.81200
 20
4.26500
 30
 0
 11
0.80200
 21
4.08100
  0
LINE
  8
Kontur
 62
   7
 39
0.100
  6
CONTINUOUS
 10
0.80200
 20
4.08100
 30
 0
 11
0.80000
 21
4.02700
  0
LINE
  8
Kontur
 62
   7
 39
0.100
  6
CONTINUOUS
 10
0.80000
 20
4.02700
 30
 0
 11
0.80000
 21
3.97200
  0
LINE
  8
Kontur
 62
   7
 39
0.100
  6
CONTINUOUS
 10
0.80000
 20
3.97200
 30
 0
 11
0.80200
 21
3.91900
  0
LINE
  8
Kontur
 62
   7
 39
0.100
  6
CONTINUOUS
 10
0.80200
 20
3.91900
 30
 0
 11
0.81200
 21
3.73500
  0
LINE
  8
Kontur
 62
   7
 39
0.100
  6
CONTINUOUS
 10
0.81200
 20
3.73500
 30
 0
 11
0.81600
 21
3.68000
  0
LINE
  8
Kontur
 62
   7
 39
0.100
  6
CONTINUOUS
 10
0.81600
 20
3.68000
 30
 0
 11
0.82200
 21
3.62600
  0
LINE
  8
Kontur
 62
   7
 39
0.100
  6
CONTINUOUS
 10
0.82200
 20
3.62600
 30
 0
 11
0.83000
 21
3.57100
  0
LINE
  8
Kontur
 62
   7
 39
0.100
  6
CONTINUOUS
 10
0.83000
 20
3.57100
 30
 0
 11
0.86000
 21
3.39000
  0
LINE
  8
Kontur
 62
   7
 39
0.100
  6
CONTINUOUS
 10
0.86000
 20
3.39000
 30
 0
 11
0.87000
 21
3.33600
  0
LINE
  8
Kontur
 62
   7
 39
0.100
  6
CONTINUOUS
 10
0.87000
 20
3.33600
 30
 0
 11
0.88200
 21
3.28200
  0
LINE
  8
Kontur
 62
   7
 39
0.100
  6
CONTINUOUS
 10
0.88200
 20
3.28200
 30
 0
 11
0.89400
 21
3.23700
  0
LINE
  8
Kontur
 62
   7
 39
0.100
  6
CONTINUOUS
 10
0.89400
 20
3.23700
 30
 0
 11
0.94300
 21
3.05900
  0
LINE
  8
Kontur
 62
   7
 39
0.100
  6
CONTINUOUS
 10
0.94300
 20
3.05900
 30
 0
 11
0.95800
 21
3.00600
  0
LINE
  8
Kontur
 62
   7
 39
0.100
  6
CONTINUOUS
 10
0.95800
 20
3.00600
 30
 0
 11
0.97600
 21
2.95400
  0
LINE
  8
Kontur
 62
   7
 39
0.100
  6
CONTINUOUS
 10
0.97600
 20
2.95400
 30
 0
 11
0.99500
 21
2.90300
  0
LINE
  8
Kontur
 62
   7
 39
0.100
  6
CONTINUOUS
 10
0.99500
 20
2.90300
 30
 0
 11
1.06300
 21
2.73200
  0
LINE
  8
Kontur
 62
   7
 39
0.100
  6
CONTINUOUS
 10
1.06300
 20
2.73200
 30
 0
 11
1.08400
 21
2.68100
  0
LINE
  8
Kontur
 62
   7
 39
0.100
  6
CONTINUOUS
 10
1.08400
 20
2.68100
 30
 0
 11
1.10700
 21
2.63200
  0
LINE
  8
Kontur
 62
   7
 39
0.100
  6
CONTINUOUS
 10
1.10700
 20
2.63200
 30
 0
 11
1.13200
 21
2.58300
  0
LINE
  8
Kontur
 62
   7
 39
0.100
  6
CONTINUOUS
 10
1.13200
 20
2.58300
 30
 0
 11
1.21800
 21
2.42100
  0
LINE
  8
Kontur
 62
   7
 39
0.100
  6
CONTINUOUS
 10
1.21800
 20
2.42100
 30
 0
 11
1.24500
 21
2.37300
  0
LINE
  8
Kontur
 62
   7
 39
0.100
  6
CONTINUOUS
 10
1.24500
 20
2.37300
 30
 0
 11
1.27300
 21
2.32600
  0
LINE
  8
Kontur
 62
   7
 39
0.100
  6
CONTINUOUS
 10
1.27300
 20
2.32600
 30
 0
 11
1.30200
 21
2.28100
  0
LINE
  8
Kontur
 62
   7
 39
0.100
  6
CONTINUOUS
 10
1.30200
 20
2.28100
 30
 0
 11
1.40600
 21
2.12800
  0
LINE
  8
Kontur
 62
   7
 39
0.100
  6
CONTINUOUS
 10
1.40600
 20
2.12800
 30
 0
 11
1.43800
 21
2.08300
  0
LINE
  8
Kontur
 62
   7
 39
0.100
  6
CONTINUOUS
 10
1.43800
 20
2.08300
 30
 0
 11
1.47100
 21
2.03900
  0
LINE
  8
Kontur
 62
   7
 39
0.100
  6
CONTINUOUS
 10
1.47100
 20
2.03900
 30
 0
 11
1.50400
 21
2.00000
  0
LINE
  8
Kontur
 62
   7
 39
0.100
  6
CONTINUOUS
 10
1.50400
 20
2.00000
 30
 0
 11
1.62300
 21
1.86000
  0
LINE
  8
Kontur
 62
   7
 39
0.100
  6
CONTINUOUS
 10
1.62300
 20
1.86000
 30
 0
 11
1.65900
 21
1.81800
  0
LINE
  8
Kontur
 62
   7
 39
0.100
  6
CONTINUOUS
 10
1.65900
 20
1.81800
 30
 0
 11
1.69700
 21
1.77900
  0
LINE
  8
Kontur
 62
   7
 39
0.100
  6
CONTINUOUS
 10
1.69700
 20
1.77900
 30
 0
 11
1.73000
 21
1.74600
  0
LINE
  8
Kontur
 62
   7
 39
0.100
  6
CONTINUOUS
 10
1.73000
 20
1.74600
 30
 0
 11
1.86300
 21
1.61900
  0
LINE
  8
Kontur
 62
   7
 39
0.100
  6
CONTINUOUS
 10
1.86300
 20
1.61900
 30
 0
 11
1.90300
 21
1.58200
  0
LINE
  8
Kontur
 62
   7
 39
0.100
  6
CONTINUOUS
 10
1.90300
 20
1.58200
 30
 0
 11
1.94500
 21
1.54600
  0
LINE
  8
Kontur
 62
   7
 39
0.100
  6
CONTINUOUS
 10
1.94500
 20
1.54600
 30
 0
 11
1.99500
 21
1.50700
  0
LINE
  8
Kontur
 62
   7
 39
0.100
  6
CONTINUOUS
 10
1.99500
 20
1.50700
 30
 0
 11
2.14200
 21
1.39600
  0
LINE
  8
Kontur
 62
   7
 39
0.100
  6
CONTINUOUS
 10
2.14200
 20
1.39600
 30
 0
 11
2.18600
 21
1.36400
  0
LINE
  8
Kontur
 62
   7
 39
0.100
  6
CONTINUOUS
 10
2.18600
 20
1.36400
 30
 0
 11
2.23200
 21
1.33300
  0
LINE
  8
Kontur
 62
   7
 39
0.100
  6
CONTINUOUS
 10
2.23200
 20
1.33300
 30
 0
 11
2.27300
 21
1.30700
  0
LINE
  8
Kontur
 62
   7
 39
0.100
  6
CONTINUOUS
 10
2.27300
 20
1.30700
 30
 0
 11
2.43100
 21
1.21200
  0
LINE
  8
Kontur
 62
   7
 39
0.100
  6
CONTINUOUS
 10
2.43100
 20
1.21200
 30
 0
 11
2.47900
 21
1.18500
  0
LINE
  8
Kontur
 62
   7
 39
0.100
  6
CONTINUOUS
 10
2.47900
 20
1.18500
 30
 0
 11
2.52700
 21
1.16000
  0
LINE
  8
Kontur
 62
   7
 39
0.100
  6
CONTINUOUS
 10
2.52700
 20
1.16000
 30
 0
 11
2.57600
 21
1.13600
  0
LINE
  8
Kontur
 62
   7
 39
0.100
  6
CONTINUOUS
 10
2.57600
 20
1.13600
 30
 0
 11
2.74300
 21
1.05900
  0
LINE
  8
Kontur
 62
   7
 39
0.100
  6
CONTINUOUS
 10
2.74300
 20
1.05900
 30
 0
 11
2.79300
 21
1.03700
  0
LINE
  8
Kontur
 62
   7
 39
0.100
  6
CONTINUOUS
 10
2.79300
 20
1.03700
 30
 0
 11
2.84400
 21
1.01700
  0
LINE
  8
Kontur
 62
   7
 39
0.100
  6
CONTINUOUS
 10
2.84400
 20
1.01700
 30
 0
 11
2.88900
 21
1.00000
  0
LINE
  8
Kontur
 62
   7
 39
0.100
  6
CONTINUOUS
 10
2.88900
 20
1.00000
 30
 0
 11
3.06300
 21
0.94100
  0
LINE
  8
Kontur
 62
   7
 39
0.100
  6
CONTINUOUS
 10
3.06300
 20
0.94100
 30
 0
 11
3.11500
 21
0.92500
  0
LINE
  8
Kontur
 62
   7
 39
0.100
  6
CONTINUOUS
 10
3.11500
 20
0.92500
 30
 0
 11
3.16800
 21
0.91000
  0
LINE
  8
Kontur
 62
   7
 39
0.100
  6
CONTINUOUS
 10
3.16800
 20
0.91000
 30
 0
 11
3.22000
 21
0.89800
  0
LINE
  8
Kontur
 62
   7
 39
0.100
  6
CONTINUOUS
 10
3.22000
 20
0.89800
 30
 0
 11
3.40000
 21
0.85800
  0
LINE
  8
Kontur
 62
   7
 39
0.100
  6
CONTINUOUS
 10
3.40000
 20
0.85800
 30
 0
 11
3.45300
 21
0.84700
  0
LINE
  8
Kontur
 62
   7
 39
0.100
  6
CONTINUOUS
 10
3.45300
 20
0.84700
 30
 0
 11
3.50700
 21
0.83800
  0
LINE
  8
Kontur
 62
   7
 39
0.100
  6
CONTINUOUS
 10
3.50700
 20
0.83800
 30
 0
 11
3.56200
 21
0.83100
  0
LINE
  8
Kontur
 62
   7
 39
0.100
  6
CONTINUOUS
 10
3.56200
 20
0.83100
 30
 0
 11
3.74500
 21
0.81100
  0
LINE
  8
Kontur
 62
   7
 39
0.100
  6
CONTINUOUS
 10
3.74500
 20
0.81100
 30
 0
 11
3.80000
 21
0.80600
  0
LINE
  8
Kontur
 62
   7
 39
0.100
  6
CONTINUOUS
 10
3.80000
 20
0.80600
 30
 0
 11
3.85400
 21
0.80300
  0
LINE
  8
Kontur
 62
   7
 39
0.100
  6
CONTINUOUS
 10
3.85400
 20
0.80300
 30
 0
 11
3.90800
 21
0.80200
  0
LINE
  8
Kontur
 62
   7
 39
0.100
  6
CONTINUOUS
 10
3.90800
 20
0.80200
 30
 0
 11
4.09200
 21
0.80200
  0
LINE
  8
Kontur
 62
   7
 39
0.100
  6
CONTINUOUS
 10
4.09200
 20
0.80200
 30
 0
 11
4.14700
 21
0.80300
  0
CIRCLE
  8
Kontur
 62
   7
 39
0.100
  6
CONTINUOUS
 10
4.00000
 20
4.00000
 30
 0
 40
1.70000
  0
LINE
  8
Kontur
 62
   7
 39
0.100
  6
CONTINUOUS
 10
4.14700
 20
0.80300
 30
 0
 11
4.20100
 21
0.80600
  0
LINE
  8
Kontur
 62
   7
 39
0.100
  6
CONTINUOUS
 10
4.20100
 20
0.80600
 30
 0
 11
4.25500
 21
0.81100
  0
LINE
  8
Kontur
 62
   7
 39
0.100
  6
CONTINUOUS
 10
4.25500
 20
0.81100
 30
 0
 11
4.43800
 21
0.83100
  0
LINE
  8
Kontur
 62
   7
 39
0.100
  6
CONTINUOUS
 10
4.43800
 20
0.83100
 30
 0
 11
4.49200
 21
0.83800
  0
LINE
  8
Kontur
 62
   7
 39
0.100
  6
CONTINUOUS
 10
4.49200
 20
0.83800
 30
 0
 11
4.54600
 21
0.84700
  0
LINE
  8
Kontur
 62
   7
 39
0.100
  6
CONTINUOUS
 10
4.54600
 20
0.84700
 30
 0
 11
4.60000
 21
0.85800
  0
LINE
  8
Kontur
 62
   7
 39
0.100
  6
CONTINUOUS
 10
4.60000
 20
0.85800
 30
 0
 11
4.78000
 21
0.89800
  0
LINE
  8
Kontur
 62
   7
 39
0.100
  6
CONTINUOUS
 10
4.78000
 20
0.89800
 30
 0
 11
4.83400
 21
0.91100
  0
LINE
  8
Kontur
 62
   7
 39
0.100
  6
CONTINUOUS
 10
4.83400
 20
0.91100
 30
 0
 11
4.88600
 21
0.92500
  0
LINE
  8
Kontur
 62
   7
 39
0.100
  6
CONTINUOUS
 10
4.88600
 20
0.92500
 30
 0
 11
4.93700
 21
0.94100
  0
LINE
  8
Kontur
 62
   7
 39
0.100
  6
CONTINUOUS
 10
4.93700
 20
0.94100
 30
 0
 11
5.11100
 21
1.00000
  0
LINE
  8
Kontur
 62
   7
 39
0.100
  6
CONTINUOUS
 10
5.11100
 20
1.00000
 30
 0
 11
5.16200
 21
1.01900
  0
LINE
  8
Kontur
 62
   7
 39
0.100
  6
CONTINUOUS
 10
5.16200
 20
1.01900
 30
 0
 11
5.21300
 21
1.03900
  0
LINE
  8
Kontur
 62
   7
 39
0.100
  6
CONTINUOUS
 10
5.21300
 20
1.03900
 30
 0
 11
5.25700
 21
1.05900
  0
LINE
  8
Kontur
 62
   7
 39
0.100
  6
CONTINUOUS
 10
5.25700
 20
1.05900
 30
 0
 11
5.42400
 21
1.13600
  0
LINE
  8
Kontur
 62
   7
 39
0.100
  6
CONTINUOUS
 10
5.42400
 20
1.13600
 30
 0
 11
5.47300
 21
1.16000
  0
LINE
  8
Kontur
 62
   7
 39
0.100
  6
CONTINUOUS
 10
5.47300
 20
1.16000
 30
 0
 11
5.52200
 21
1.18500
  0
LINE
  8
Kontur
 62
   7
 39
0.100
  6
CONTINUOUS
 10
5.52200
 20
1.18500
 30
 0
 11
5.56900
 21
1.21200
  0
LINE
  8
Kontur
 62
   7
 39
0.100
  6
CONTINUOUS
 10
5.56900
 20
1.21200
 30
 0
 11
5.72700
 21
1.30700
  0
LINE
  8
Kontur
 62
   7
 39
0.100
  6
CONTINUOUS
 10
5.72700
 20
1.30700
 30
 0
 11
5.81900
 21
1.36700
  0
LINE
  8
Kontur
 62
   7
 39
0.100
  6
CONTINUOUS
 10
5.81900
 20
1.36700
 30
 0
 11
5.85800
 21
1.39600
  0
LINE
  8
Kontur
 62
   7
 39
0.100
  6
CONTINUOUS
 10
5.85800
 20
1.39600
 30
 0
 11
6.00500
 21
1.50700
  0
LINE
  8
Kontur
 62
   7
 39
0.100
  6
CONTINUOUS
 10
6.00500
 20
1.50700
 30
 0
 11
6.04800
 21
1.54100
  0
LINE
  8
Kontur
 62
   7
 39
0.100
  6
CONTINUOUS
 10
6.04800
 20
1.54100
 30
 0
 11
6.09000
 21
1.57600
  0
LINE
  8
Kontur
 62
   7
 39
0.100
  6
CONTINUOUS
 10
6.09000
 20
1.57600
 30
 0
 11
6.13700
 21
1.61900
  0
LINE
  8
Kontur
 62
   7
 39
0.100
  6
CONTINUOUS
 10
6.13700
 20
1.61900
 30
 0
 11
6.27000
 21
1.74600
  0
LINE
  8
Kontur
 62
   7
 39
0.100
  6
CONTINUOUS
 10
6.27000
 20
1.74600
 30
 0
 11
6.30900
 21
1.78500
  0
LINE
  8
Kontur
 62
   7
 39
0.100
  6
CONTINUOUS
 10
6.30900
 20
1.78500
 30
 0
 11
6.34600
 21
1.82500
  0
LINE
  8
Kontur
 62
   7
 39
0.100
  6
CONTINUOUS
 10
6.34600
 20
1.82500
 30
 0
 11
6.37700
 21
1.86000
  0
LINE
  8
Kontur
 62
   7
 39
0.100
  6
CONTINUOUS
 10
6.37700
 20
1.86000
 30
 0
 11
6.49600
 21
2.00000
  0
LINE
  8
Kontur
 62
   7
 39
0.100
  6
CONTINUOUS
 10
6.49600
 20
2.00000
 30
 0
 11
6.53100
 21
2.04200
  0
LINE
  8
Kontur
 62
   7
 39
0.100
  6
CONTINUOUS
 10
6.53100
 20
2.04200
 30
 0
 11
6.56400
 21
2.08600
  0
LINE
  8
Kontur
 62
   7
 39
0.100
  6
CONTINUOUS
 10
6.56400
 20
2.08600
 30
 0
 11
6.59400
 21
2.12800
  0
LINE
  8
Kontur
 62
   7
 39
0.100
  6
CONTINUOUS
 10
6.59400
 20
2.12800
 30
 0
 11
6.69800
 21
2.28100
  0
LINE
  8
Kontur
 62
   7
 39
0.100
  6
CONTINUOUS
 10
6.69800
 20
2.28100
 30
 0
 11
6.72700
 21
2.32700
  0
LINE
  8
Kontur
 62
   7
 39
0.100
  6
CONTINUOUS
 10
6.72700
 20
2.32700
 30
 0
 11
6.75600
 21
2.37400
  0
LINE
  8
Kontur
 62
   7
 39
0.100
  6
CONTINUOUS
 10
6.75600
 20
2.37400
 30
 0
 11
6.78200
 21
2.42100
  0
LINE
  8
Kontur
 62
   7
 39
0.100
  6
CONTINUOUS
 10
6.78200
 20
2.42100
 30
 0
 11
6.86800
 21
2.58300
  0
LINE
  8
Kontur
 62
   7
 39
0.100
  6
CONTINUOUS
 10
6.86800
 20
2.58300
 30
 0
 11
6.89300
 21
2.63200
  0
LINE
  8
Kontur
 62
   7
 39
0.100
  6
CONTINUOUS
 10
6.89300
 20
2.63200
 30
 0
 11
6.91600
 21
2.68100
  0
LINE
  8
Kontur
 62
   7
 39
0.100
  6
CONTINUOUS
 10
6.91600
 20
2.68100
 30
 0
 11
6.93700
 21
2.73200
  0
LINE
  8
Kontur
 62
   7
 39
0.100
  6
CONTINUOUS
 10
6.93700
 20
2.73200
 30
 0
 11
7.00500
 21
2.90300
  0
LINE
  8
Kontur
 62
   7
 39
0.100
  6
CONTINUOUS
 10
7.00500
 20
2.90300
 30
 0
 11
7.02400
 21
2.95400
  0
LINE
  8
Kontur
 62
   7
 39
0.100
  6
CONTINUOUS
 10
7.02400
 20
2.95400
 30
 0
 11
7.04200
 21
3.00600
  0
LINE
  8
Kontur
 62
   7
 39
0.100
  6
CONTINUOUS
 10
7.04200
 20
3.00600
 30
 0
 11
7.05700
 21
3.05900
  0
LINE
  8
Kontur
 62
   7
 39
0.100
  6
CONTINUOUS
 10
7.05700
 20
3.05900
 30
 0
 11
7.10600
 21
3.23700
  0
LINE
  8
Kontur
 62
   7
 39
0.100
  6
CONTINUOUS
 10
7.10600
 20
3.23700
 30
 0
 11
7.12000
 21
3.29000
  0
LINE
  8
Kontur
 62
   7
 39
0.100
  6
CONTINUOUS
 10
7.12000
 20
3.29000
 30
 0
 11
7.13100
 21
3.34300
  0
LINE
  8
Kontur
 62
   7
 39
0.100
  6
CONTINUOUS
 10
7.13100
 20
3.34300
 30
 0
 11
7.14000
 21
3.39000
  0
LINE
  8
Kontur
 62
   7
 39
0.100
  6
CONTINUOUS
 10
7.14000
 20
3.39000
 30
 0
 11
7.17000
 21
3.57100
  0
LINE
  8
Kontur
 62
   7
 39
0.100
  6
CONTINUOUS
 10
7.17000
 20
3.57100
 30
 0
 11
7.17800
 21
3.62500
  0
LINE
  8
Kontur
 62
   7
 39
0.100
  6
CONTINUOUS
 10
7.17800
 20
3.62500
 30
 0
 11
7.18400
 21
3.67900
  0
LINE
  8
Kontur
 62
   7
 39
0.100
  6
CONTINUOUS
 10
7.18400
 20
3.67900
 30
 0
 11
7.18800
 21
3.73500
  0
LINE
  8
Kontur
 62
   7
 39
0.100
  6
CONTINUOUS
 10
7.18800
 20
3.73500
 30
 0
 11
7.19800
 21
3.91900
  0
LINE
  8
Kontur
 62
   7
 39
0.100
  6
CONTINUOUS
 10
7.19800
 20
3.91900
 30
 0
 11
7.20000
 21
3.97300
  0
LINE
  8
Kontur
 62
   7
 39
0.100
  6
CONTINUOUS
 10
7.20000
 20
3.97300
 30
 0
 11
7.20000
 21
4.02800
  0
LINE
  8
Kontur
 62
   7
 39
0.100
  6
CONTINUOUS
 10
7.20000
 20
4.02800
 30
 0
 11
7.19800
 21
4.08100
  0
LINE
  8
Kontur
 62
   7
 39
0.100
  6
CONTINUOUS
 10
7.19800
 20
4.08100
 30
 0
 11
7.18800
 21
4.26500
  0
LINE
  8
Kontur
 62
   7
 39
0.100
  6
CONTINUOUS
 10
7.18800
 20
4.26500
 30
 0
 11
7.18400
 21
4.32000
  0
LINE
  8
Kontur
 62
   7
 39
0.100
  6
CONTINUOUS
 10
7.18400
 20
4.32000
 30
 0
 11
7.17800
 21
4.37400
  0
LINE
  8
Kontur
 62
   7
 39
0.100
  6
CONTINUOUS
 10
7.17800
 20
4.37400
 30
 0
 11
7.17000
 21
4.42900
  0
LINE
  8
Kontur
 62
   7
 39
0.100
  6
CONTINUOUS
 10
7.17000
 20
4.42900
 30
 0
 11
7.14000
 21
4.61000
  0
LINE
  8
Kontur
 62
   7
 39
0.100
  6
CONTINUOUS
 10
7.14000
 20
4.61000
 30
 0
 11
7.13000
 21
4.66400
  0
LINE
  8
Kontur
 62
   7
 39
0.100
  6
CONTINUOUS
 10
7.13000
 20
4.66400
 30
 0
 11
7.11800
 21
4.71800
  0
LINE
  8
Kontur
 62
   7
 39
0.100
  6
CONTINUOUS
 10
7.11800
 20
4.71800
 30
 0
 11
7.10600
 21
4.76300
  0
LINE
  8
Kontur
 62
   7
 39
0.100
  6
CONTINUOUS
 10
7.10600
 20
4.76300
 30
 0
 11
7.05700
 21
4.94100
  0
LINE
  8
Kontur
 62
   7
 39
0.100
  6
CONTINUOUS
 10
7.05700
 20
4.94100
 30
 0
 11
7.04200
 21
4.99400
  0
LINE
  8
Kontur
 62
   7
 39
0.100
  6
CONTINUOUS
 10
7.04200
 20
4.99400
 30
 0
 11
7.02400
 21
5.04600
  0
LINE
  8
Kontur
 62
   7
 39
0.100
  6
CONTINUOUS
 10
7.02400
 20
5.04600
 30
 0
 11
7.00500
 21
5.09700
  0
LINE
  8
Kontur
 62
   7
 39
0.100
  6
CONTINUOUS
 10
7.00500
 20
5.09700
 30
 0
 11
6.93700
 21
5.26800
  0
LINE
  8
Kontur
 62
   7
 39
0.100
  6
CONTINUOUS
 10
6.93700
 20
5.26800
 30
 0
 11
6.91600
 21
5.31900
  0
LINE
  8
Kontur
 62
   7
 39
0.100
  6
CONTINUOUS
 10
6.91600
 20
5.31900
 30
 0
 11
6.89300
 21
5.36800
  0
LINE
  8
Kontur
 62
   7
 39
0.100
  6
CONTINUOUS
 10
6.89300
 20
5.36800
 30
 0
 11
6.86800
 21
5.41700
  0
LINE
  8
Kontur
 62
   7
 39
0.100
  6
CONTINUOUS
 10
6.86800
 20
5.41700
 30
 0
 11
6.78200
 21
5.57900
  0
LINE
  8
Kontur
 62
   7
 39
0.100
  6
CONTINUOUS
 10
6.78200
 20
5.57900
 30
 0
 11
6.75500
 21
5.62700
  0
LINE
  8
Kontur
 62
   7
 39
0.100
  6
CONTINUOUS
 10
6.75500
 20
5.62700
 30
 0
 11
6.72700
 21
5.67400
  0
LINE
  8
Kontur
 62
   7
 39
0.100
  6
CONTINUOUS
 10
6.72700
 20
5.67400
 30
 0
 11
6.69800
 21
5.71900
  0
LINE
  8
Kontur
 62
   7
 39
0.100
  6
CONTINUOUS
 10
6.69800
 20
5.71900
 30
 0
 11
6.59400
 21
5.87200
  0
LINE
  8
Kontur
 62
   7
 39
0.100
  6
CONTINUOUS
 10
6.59400
 20
5.87200
 30
 0
 11
6.56200
 21
5.91700
  0
LINE
  8
Kontur
 62
   7
 39
0.100
  6
CONTINUOUS
 10
6.56200
 20
5.91700
 30
 0
 11
6.52900
 21
5.96100
  0
LINE
  8
Kontur
 62
   7
 39
0.100
  6
CONTINUOUS
 10
6.52900
 20
5.96100
 30
 0
 11
6.49600
 21
6.00000
  0
LINE
  8
Kontur
 62
   7
 39
0.100
  6
CONTINUOUS
 10
6.49600
 20
6.00000
 30
 0
 11
6.37700
 21
6.14000
  0
LINE
  8
Kontur
 62
   7
 39
0.100
  6
CONTINUOUS
 10
6.37700
 20
6.14000
 30
 0
 11
6.34100
 21
6.18200
  0
LINE
  8
Kontur
 62
   7
 39
0.100
  6
CONTINUOUS
 10
6.34100
 20
6.18200
 30
 0
 11
6.30300
 21
6.22100
  0
LINE
  8
Kontur
 62
   7
 39
0.100
  6
CONTINUOUS
 10
6.30300
 20
6.22100
 30
 0
 11
6.27000
 21
6.25400
  0
LINE
  8
Kontur
 62
   7
 39
0.100
  6
CONTINUOUS
 10
6.27000
 20
6.25400
 30
 0
 11
6.13700
 21
6.38100
  0
LINE
  8
Kontur
 62
   7
 39
0.100
  6
CONTINUOUS
 10
6.13700
 20
6.38100
 30
 0
 11
6.09700
 21
6.41800
  0
LINE
  8
Kontur
 62
   7
 39
0.100
  6
CONTINUOUS
 10
6.09700
 20
6.41800
 30
 0
 11
6.05500
 21
6.45400
  0
LINE
  8
Kontur
 62
   7
 39
0.100
  6
CONTINUOUS
 10
6.05500
 20
6.45400
 30
 0
 11
6.00500
 21
6.49300
  0
LINE
  8
Kontur
 62
   7
 39
0.100
  6
CONTINUOUS
 10
6.00500
 20
6.49300
 30
 0
 11
5.85800
 21
6.60400
  0
LINE
  8
Kontur
 62
   7
 39
0.100
  6
CONTINUOUS
 10
5.85800
 20
6.60400
 30
 0
 11
5.81400
 21
6.63600
  0
LINE
  8
Kontur
 62
   7
 39
0.100
  6
CONTINUOUS
 10
5.81400
 20
6.63600
 30
 0
 11
5.76800
 21
6.66700
  0
LINE
  8
Kontur
 62
   7
 39
0.100
  6
CONTINUOUS
 10
5.76800
 20
6.66700
 30
 0
 11
5.72700
 21
6.69300
  0
LINE
  8
Kontur
 62
   7
 39
0.100
  6
CONTINUOUS
 10
5.72700
 20
6.69300
 30
 0
 11
5.56900
 21
6.78800
  0
LINE
  8
Kontur
 62
   7
 39
0.100
  6
CONTINUOUS
 10
5.56900
 20
6.78800
 30
 0
 11
5.52100
 21
6.81500
  0
LINE
  8
Kontur
 62
   7
 39
0.100
  6
CONTINUOUS
 10
5.52100
 20
6.81500
 30
 0
 11
5.47300
 21
6.84000
  0
LINE
  8
Kontur
 62
   7
 39
0.100
  6
CONTINUOUS
 10
5.47300
 20
6.84000
 30
 0
 11
5.42400
 21
6.86400
  0
LINE
  8
Kontur
 62
   7
 39
0.100
  6
CONTINUOUS
 10
5.42400
 20
6.86400
 30
 0
 11
5.25700
 21
6.94100
  0
LINE
  8
Kontur
 62
   7
 39
0.100
  6
CONTINUOUS
 10
5.25700
 20
6.94100
 30
 0
 11
5.20700
 21
6.96300
  0
LINE
  8
Kontur
 62
   7
 39
0.100
  6
CONTINUOUS
 10
5.20700
 20
6.96300
 30
 0
 11
5.15600
 21
6.98300
  0
LINE
  8
Kontur
 62
   7
 39
0.100
  6
CONTINUOUS
 10
5.15600
 20
6.98300
 30
 0
 11
5.11100
 21
7.00000
  0
LINE
  8
Kontur
 62
   7
 39
0.100
  6
CONTINUOUS
 10
5.11100
 20
7.00000
 30
 0
 11
4.93700
 21
7.05900
  0
LINE
  8
Kontur
 62
   7
 39
0.100
  6
CONTINUOUS
 10
4.93700
 20
7.05900
 30
 0
 11
4.88500
 21
7.07500
  0
LINE
  8
Kontur
 62
   7
 39
0.100
  6
CONTINUOUS
 10
4.88500
 20
7.07500
 30
 0
 11
4.83200
 21
7.09000
  0
LINE
  8
Kontur
 62
   7
 39
0.100
  6
CONTINUOUS
 10
4.83200
 20
7.09000
 30
 0
 11
4.78000
 21
7.10200
  0
LINE
  8
Kontur
 62
   7
 39
0.100
  6
CONTINUOUS
 10
4.78000
 20
7.10200
 30
 0
 11
4.60000
 21
7.14200
  0
LINE
  8
Kontur
 62
   7
 39
0.100
  6
CONTINUOUS
 10
4.60000
 20
7.14200
 30
 0
 11
4.54700
 21
7.15300
  0
LINE
  8
Kontur
 62
   7
 39
0.100
  6
CONTINUOUS
 10
4.54700
 20
7.15300
 30
 0
 11
4.49300
 21
7.16200
  0
LINE
  8
Kontur
 62
   7
 39
0.100
  6
CONTINUOUS
 10
4.49300
 20
7.16200
 30
 0
 11
4.43800
 21
7.16900
  0
LINE
  8
Kontur
 62
   7
 39
0.100
  6
CONTINUOUS
 10
4.43800
 20
7.16900
 30
 0
 11
4.25500
 21
7.18900
  0
LINE
  8
Kontur
 62
   7
 39
0.100
  6
CONTINUOUS
 10
4.25500
 20
7.18900
 30
 0
 11
4.20000
 21
7.19400
  0
LINE
  8
Kontur
 62
   7
 39
0.100
  6
CONTINUOUS
 10
4.20000
 20
7.19400
 30
 0
 11
4.14600
 21
7.19700
  0
LINE
  8
Kontur
 62
   7
 39
0.100
  6
CONTINUOUS
 10
4.14600
 20
7.19700
 30
 0
 11
4.09200
 21
7.19800
  0
LINE
  8
Kontur
 62
   7
 39
0.100
  6
CONTINUOUS
 10
4.09200
 20
7.19800
 30
 0
 11
3.90800
 21
7.19800
  0
LINE
  8
Kontur
 62
   7
 39
0.100
  6
CONTINUOUS
 10
3.90800
 20
7.19800
 30
 0
 11
3.85300
 21
7.19700
  0
LINE
  8
Kontur
 62
   7
 39
0.100
  6
CONTINUOUS
 10
3.85300
 20
7.19700
 30
 0
 11
3.79900
 21
7.19400
  0
LINE
  8
Kontur
 62
   7
 39
0.100
  6
CONTINUOUS
 10
3.79900
 20
7.19400
 30
 0
 11
3.74500
 21
7.18900
  0
LINE
  8
Kontur
 62
   7
 39
0.100
  6
CONTINUOUS
 10
3.74500
 20
7.18900
 30
 0
 11
3.56200
 21
7.16900
  0
LINE
  8
Kontur
 62
   7
 39
0.100
  6
CONTINUOUS
 10
3.56200
 20
7.16900
 30
 0
 11
3.50800
 21
7.16200
  0
LINE
  8
Kontur
 62
   7
 39
0.100
  6
CONTINUOUS
 10
3.50800
 20
7.16200
 30
 0
 11
3.45400
 21
7.15300
  0
LINE
  8
Kontur
 62
   7
 39
0.100
  6
CONTINUOUS
 10
3.45400
 20
7.15300
 30
 0
 11
3.40000
 21
7.14200
  0
LINE
  8
Kontur
 62
   7
 39
0.100
  6
CONTINUOUS
 10
3.40000
 20
7.14200
 30
 0
 11
3.22000
 21
7.10200
  0
LINE
  8
Kontur
 62
   7
 39
0.100
  6
CONTINUOUS
 10
3.22000
 20
7.10200
 30
 0
 11
3.16600
 21
7.08900
  0
LINE
  8
Kontur
 62
   7
 39
0.100
  6
CONTINUOUS
 10
3.16600
 20
7.08900
 30
 0
 11
3.11400
 21
7.07500
  0
LINE
  8
Kontur
 62
   7
 39
0.100
  6
CONTINUOUS
 10
3.11400
 20
7.07500
 30
 0
 11
3.06300
 21
7.05900
  0
LINE
  8
Kontur
 62
   7
 39
0.100
  6
CONTINUOUS
 10
3.06300
 20
7.05900
 30
 0
 11
2.88900
 21
7.00000
  0
LINE
  8
Kontur
 62
   7
 39
0.100
  6
CONTINUOUS
 10
2.88900
 20
7.00000
 30
 0
 11
2.83800
 21
6.98100
  0
LINE
  8
Kontur
 62
   7
 39
0.100
  6
CONTINUOUS
 10
2.83800
 20
6.98100
 30
 0
 11
2.78700
 21
6.96100
  0
LINE
  8
Kontur
 62
   7
 39
0.100
  6
CONTINUOUS
 10
2.78700
 20
6.96100
 30
 0
 11
2.74300
 21
6.94100
  0
LINE
  8
Kontur
 62
   7
 39
0.100
  6
CONTINUOUS
 10
2.74300
 20
6.94100
 30
 0
 11
2.57600
 21
6.86400
  0
LINE
  8
Kontur
 62
   7
 39
0.100
  6
CONTINUOUS
 10
2.57600
 20
6.86400
 30
 0
 11
2.52700
 21
6.84000
  0
LINE
  8
Kontur
 62
   7
 39
0.100
  6
CONTINUOUS
 10
2.52700
 20
6.84000
 30
 0
 11
2.47800
 21
6.81500
  0
LINE
  8
Kontur
 62
   7
 39
0.100
  6
CONTINUOUS
 10
2.47800
 20
6.81500
 30
 0
 11
2.43100
 21
6.78800
  0
LINE
  8
Kontur
 62
   7
 39
0.100
  6
CONTINUOUS
 10
2.43100
 20
6.78800
 30
 0
 11
2.27300
 21
6.69300
  0
LINE
  8
Kontur
 62
   7
 39
0.100
  6
CONTINUOUS
 10
2.27300
 20
6.69300
 30
 0
 11
2.18100
 21
6.63300
  0
LINE
  8
Kontur
 62
   7
 39
0.100
  6
CONTINUOUS
 10
2.18100
 20
6.63300
 30
 0
 11
2.14200
 21
6.60400
  0
LINE
  8
Kontur
 62
   7
 39
0.100
  6
CONTINUOUS
 10
2.14200
 20
6.60400
 30
 0
 11
1.99500
 21
6.49300
  0
LINE
  8
Kontur
 62
   7
 39
0.100
  6
CONTINUOUS
 10
1.99500
 20
6.49300
 30
 0
 11
1.95200
 21
6.45900
  0
LINE
  8
Kontur
 62
   7
 39
0.100
  6
CONTINUOUS
 10
1.95200
 20
6.45900
 30
 0
 11
1.91000
 21
6.42400
  0
LINE
  8
Kontur
 62
   7
 39
0.100
  6
CONTINUOUS
 10
1.91000
 20
6.42400
 30
 0
 11
1.86300
 21
6.38100
  0
LINE
  8
Kontur
 62
   7
 39
0.100
  6
CONTINUOUS
 10
1.86300
 20
6.38100
 30
 0
 11
1.73000
 21
6.25400
  0
LINE
  8
Kontur
 62
   7
 39
0.100
  6
CONTINUOUS
 10
1.73000
 20
6.25400
 30
 0
 11
1.69100
 21
6.21500
  0
LINE
  8
Kontur
 62
   7
 39
0.100
  6
CONTINUOUS
 10
1.69100
 20
6.21500
 30
 0
 11
1.65400
 21
6.17500
  0
LINE
  8
Kontur
 62
   7
 39
0.100
  6
CONTINUOUS
 10
1.65400
 20
6.17500
 30
 0
 11
1.62300
 21
6.14000
  0
LINE
  8
Kontur
 62
   7
 39
0.100
  6
CONTINUOUS
 10
1.62300
 20
6.14000
 30
 0
 11
1.50400
 21
6.00000
  0
LINE
  8
Kontur
 62
   7
 39
0.100
  6
CONTINUOUS
 10
1.50400
 20
6.00000
 30
 0
 11
1.46900
 21
5.95800
  0
LINE
  8
Kontur
 62
   7
 39
0.100
  6
CONTINUOUS
 10
1.46900
 20
5.95800
 30
 0
 11
1.43600
 21
5.91400
  0
LINE
  8
Kontur
 62
   7
 39
0.100
  6
CONTINUOUS
 10
1.43600
 20
5.91400
 30
 0
 11
1.40600
 21
5.87200
  0
LINE
  8
Kontur
 62
   7
 39
0.100
  6
CONTINUOUS
 10
1.40600
 20
5.87200
 30
 0
 11
1.30200
 21
5.71900
  0
LINE
  8
Kontur
 62
   7
 39
0.100
  6
CONTINUOUS
 10
1.30200
 20
5.71900
 30
 0
 11
1.27300
 21
5.67300
  0
LINE
  8
Kontur
 62
   7
 39
0.100
  6
CONTINUOUS
 10
1.27300
 20
5.67300
 30
 0
 11
1.24400
 21
5.62600
  0
LINE
  8
Kontur
 62
   7
 39
0.100
  6
CONTINUOUS
 10
1.24400
 20
5.62600
 30
 0
 11
1.21800
 21
5.57900
  0
LINE
  8
Kontur
 62
   7
 39
0.100
  6
CONTINUOUS
 10
1.21800
 20
5.57900
 30
 0
 11
1.13200
 21
5.41700
  0
LINE
  8
Kontur
 62
   7
 39
0.100
  6
CONTINUOUS
 10
1.13200
 20
5.41700
 30
 0
 11
1.10700
 21
5.36800
  0
LINE
  8
Kontur
 62
   7
 39
0.100
  6
CONTINUOUS
 10
1.10700
 20
5.36800
 30
 0
 11
1.08400
 21
5.31900
  0
LINE
  8
Kontur
 62
   7
 39
0.100
  6
CONTINUOUS
 10
1.08400
 20
5.31900
 30
 0
 11
1.06300
 21
5.26800
  0
LINE
  8
Kontur
 62
   7
 39
0.100
  6
CONTINUOUS
 10
1.06300
 20
5.26800
 30
 0
 11
0.99500
 21
5.09700
  0
LINE
  8
Kontur
 62
   7
 39
0.100
  6
CONTINUOUS
 10
0.99500
 20
5.09700
 30
 0
 11
0.97600
 21
5.04600
  0
LINE
  8
Kontur
 62
   7
 39
0.100
  6
CONTINUOUS
 10
0.97600
 20
5.04600
 30
 0
 11
0.95800
 21
4.99400
  0
LINE
  8
Kontur
 62
   7
 39
0.100
  6
CONTINUOUS
 10
0.95800
 20
4.99400
 30
 0
 11
0.94300
 21
4.94100
  0
LINE
  8
Kontur
 62
   7
 39
0.100
  6
CONTINUOUS
 10
0.94300
 20
4.94100
 30
 0
 11
0.89400
 21
4.76300
  0
LINE
  8
Kontur
 62
   7
 39
0.100
  6
CONTINUOUS
 10
0.89400
 20
4.76300
 30
 0
 11
0.88000
 21
4.71000
  0
LINE
  8
Kontur
 62
   7
 39
0.100
  6
CONTINUOUS
 10
0.88000
 20
4.71000
 30
 0
 11
0.86900
 21
4.65700
  0
LINE
  8
Kontur
 62
   7
 39
0.100
  6
CONTINUOUS
 10
0.86900
 20
4.65700
 30
 0
 11
0.86000
 21
4.61000
  0
LINE
  8
Kontur
 62
   7
 39
0.100
  6
CONTINUOUS
 10
0.86000
 20
4.61000
 30
 0
 11
0.83000
 21
4.42900
  0
LINE
  8
Kontur
 62
   7
 39
0.100
  6
CONTINUOUS
 10
0.83000
 20
4.42900
 30
 0
 11
0.82200
 21
4.37500
  0
LINE
  8
Kontur
 62
   7
 39
0.100
  6
CONTINUOUS
 10
0.82200
 20
4.37500
 30
 0
 11
0.81600
 21
4.32100
  0
LINE
  8
Kontur
 62
   7
 39
0.100
  6
CONTINUOUS
 10
0.81600
 20
4.32100
 30
 0
 11
0.81200
 21
4.26500
  0
LINE
  8
Kontur
 62
   7
 39
0.100
  6
CONTINUOUS
 10
0.81200
 20
4.26500
 30
 0
 11
0.80200
 21
4.08100
  0
LINE
  8
Kontur
 62
   7
 39
0.100
  6
CONTINUOUS
 10
0.80200
 20
4.08100
 30
 0
 11
0.80000
 21
4.02700
  0
LINE
  8
Kontur
 62
   7
 39
0.100
  6
CONTINUOUS
 10
0.80000
 20
4.02700
 30
 0
 11
0.80000
 21
3.97200
  0
LINE
  8
Kontur
 62
   7
 39
0.100
  6
CONTINUOUS
 10
0.80000
 20
3.97200
 30
 0
 11
0.80200
 21
3.91900
  0
LINE
  8
Kontur
 62
   7
 39
0.100
  6
CONTINUOUS
 10
0.80200
 20
3.91900
 30
 0
 11
0.81200
 21
3.73500
  0
LINE
  8
Kontur
 62
   7
 39
0.100
  6
CONTINUOUS
 10
0.81200
 20
3.73500
 30
 0
 11
0.81600
 21
3.68000
  0
LINE
  8
Kontur
 62
   7
 39
0.100
  6
CONTINUOUS
 10
0.81600
 20
3.68000
 30
 0
 11
0.82200
 21
3.62600
  0
LINE
  8
Kontur
 62
   7
 39
0.100
  6
CONTINUOUS
 10
0.82200
 20
3.62600
 30
 0
 11
0.83000
 21
3.57100
  0
LINE
  8
Kontur
 62
   7
 39
0.100
  6
CONTINUOUS
 10
0.83000
 20
3.57100
 30
 0
 11
0.86000
 21
3.39000
  0
LINE
  8
Kontur
 62
   7
 39
0.100
  6
CONTINUOUS
 10
0.86000
 20
3.39000
 30
 0
 11
0.87000
 21
3.33600
  0
LINE
  8
Kontur
 62
   7
 39
0.100
  6
CONTINUOUS
 10
0.87000
 20
3.33600
 30
 0
 11
0.88200
 21
3.28200
  0
LINE
  8
Kontur
 62
   7
 39
0.100
  6
CONTINUOUS
 10
0.88200
 20
3.28200
 30
 0
 11
0.89400
 21
3.23700
  0
LINE
  8
Kontur
 62
   7
 39
0.100
  6
CONTINUOUS
 10
0.89400
 20
3.23700
 30
 0
 11
0.94300
 21
3.05900
  0
LINE
  8
Kontur
 62
   7
 39
0.100
  6
CONTINUOUS
 10
0.94300
 20
3.05900
 30
 0
 11
0.95800
 21
3.00600
  0
LINE
  8
Kontur
 62
   7
 39
0.100
  6
CONTINUOUS
 10
0.95800
 20
3.00600
 30
 0
 11
0.97600
 21
2.95400
  0
LINE
  8
Kontur
 62
   7
 39
0.100
  6
CONTINUOUS
 10
0.97600
 20
2.95400
 30
 0
 11
0.99500
 21
2.90300
  0
LINE
  8
Kontur
 62
   7
 39
0.100
  6
CONTINUOUS
 10
0.99500
 20
2.90300
 30
 0
 11
1.06300
 21
2.73200
  0
LINE
  8
Kontur
 62
   7
 39
0.100
  6
CONTINUOUS
 10
1.06300
 20
2.73200
 30
 0
 11
1.08400
 21
2.68100
  0
LINE
  8
Kontur
 62
   7
 39
0.100
  6
CONTINUOUS
 10
1.08400
 20
2.68100
 30
 0
 11
1.10700
 21
2.63200
  0
LINE
  8
Kontur
 62
   7
 39
0.100
  6
CONTINUOUS
 10
1.10700
 20
2.63200
 30
 0
 11
1.13200
 21
2.58300
  0
LINE
  8
Kontur
 62
   7
 39
0.100
  6
CONTINUOUS
 10
1.13200
 20
2.58300
 30
 0
 11
1.21800
 21
2.42100
  0
LINE
  8
Kontur
 62
   7
 39
0.100
  6
CONTINUOUS
 10
1.21800
 20
2.42100
 30
 0
 11
1.24500
 21
2.37300
  0
LINE
  8
Kontur
 62
   7
 39
0.100
  6
CONTINUOUS
 10
1.24500
 20
2.37300
 30
 0
 11
1.27300
 21
2.32600
  0
LINE
  8
Kontur
 62
   7
 39
0.100
  6
CONTINUOUS
 10
1.27300
 20
2.32600
 30
 0
 11
1.30200
 21
2.28100
  0
LINE
  8
Kontur
 62
   7
 39
0.100
  6
CONTINUOUS
 10
1.30200
 20
2.28100
 30
 0
 11
1.40600
 21
2.12800
  0
LINE
  8
Kontur
 62
   7
 39
0.100
  6
CONTINUOUS
 10
1.40600
 20
2.12800
 30
 0
 11
1.43800
 21
2.08300
  0
LINE
  8
Kontur
 62
   7
 39
0.100
  6
CONTINUOUS
 10
1.43800
 20
2.08300
 30
 0
 11
1.47100
 21
2.03900
  0
LINE
  8
Kontur
 62
   7
 39
0.100
  6
CONTINUOUS
 10
1.47100
 20
2.03900
 30
 0
 11
1.50400
 21
2.00000
  0
LINE
  8
Kontur
 62
   7
 39
0.100
  6
CONTINUOUS
 10
1.50400
 20
2.00000
 30
 0
 11
1.62300
 21
1.86000
  0
LINE
  8
Kontur
 62
   7
 39
0.100
  6
CONTINUOUS
 10
1.62300
 20
1.86000
 30
 0
 11
1.65900
 21
1.81800
  0
LINE
  8
Kontur
 62
   7
 39
0.100
  6
CONTINUOUS
 10
1.65900
 20
1.81800
 30
 0
 11
1.69700
 21
1.77900
  0
LINE
  8
Kontur
 62
   7
 39
0.100
  6
CONTINUOUS
 10
1.69700
 20
1.77900
 30
 0
 11
1.73000
 21
1.74600
  0
LINE
  8
Kontur
 62
   7
 39
0.100
  6
CONTINUOUS
 10
1.73000
 20
1.74600
 30
 0
 11
1.86300
 21
1.61900
  0
LINE
  8
Kontur
 62
   7
 39
0.100
  6
CONTINUOUS
 10
1.86300
 20
1.61900
 30
 0
 11
1.90300
 21
1.58200
  0
LINE
  8
Kontur
 62
   7
 39
0.100
  6
CONTINUOUS
 10
1.90300
 20
1.58200
 30
 0
 11
1.94500
 21
1.54600
  0
LINE
  8
Kontur
 62
   7
 39
0.100
  6
CONTINUOUS
 10
1.94500
 20
1.54600
 30
 0
 11
1.99500
 21
1.50700
  0
LINE
  8
Kontur
 62
   7
 39
0.100
  6
CONTINUOUS
 10
1.99500
 20
1.50700
 30
 0
 11
2.14200
 21
1.39600
  0
LINE
  8
Kontur
 62
   7
 39
0.100
  6
CONTINUOUS
 10
2.14200
 20
1.39600
 30
 0
 11
2.18600
 21
1.36400
  0
LINE
  8
Kontur
 62
   7
 39
0.100
  6
CONTINUOUS
 10
2.18600
 20
1.36400
 30
 0
 11
2.23200
 21
1.33300
  0
LINE
  8
Kontur
 62
   7
 39
0.100
  6
CONTINUOUS
 10
2.23200
 20
1.33300
 30
 0
 11
2.27300
 21
1.30700
  0
LINE
  8
Kontur
 62
   7
 39
0.100
  6
CONTINUOUS
 10
2.27300
 20
1.30700
 30
 0
 11
2.43100
 21
1.21200
  0
LINE
  8
Kontur
 62
   7
 39
0.100
  6
CONTINUOUS
 10
2.43100
 20
1.21200
 30
 0
 11
2.47900
 21
1.18500
  0
LINE
  8
Kontur
 62
   7
 39
0.100
  6
CONTINUOUS
 10
2.47900
 20
1.18500
 30
 0
 11
2.52700
 21
1.16000
  0
LINE
  8
Kontur
 62
   7
 39
0.100
  6
CONTINUOUS
 10
2.52700
 20
1.16000
 30
 0
 11
2.57600
 21
1.13600
  0
LINE
  8
Kontur
 62
   7
 39
0.100
  6
CONTINUOUS
 10
2.57600
 20
1.13600
 30
 0
 11
2.74300
 21
1.05900
  0
LINE
  8
Kontur
 62
   7
 39
0.100
  6
CONTINUOUS
 10
2.74300
 20
1.05900
 30
 0
 11
2.79300
 21
1.03700
  0
LINE
  8
Kontur
 62
   7
 39
0.100
  6
CONTINUOUS
 10
2.79300
 20
1.03700
 30
 0
 11
2.84400
 21
1.01700
  0
LINE
  8
Kontur
 62
   7
 39
0.100
  6
CONTINUOUS
 10
2.84400
 20
1.01700
 30
 0
 11
2.88900
 21
1.00000
  0
LINE
  8
Kontur
 62
   7
 39
0.100
  6
CONTINUOUS
 10
2.88900
 20
1.00000
 30
 0
 11
3.06300
 21
0.94100
  0
LINE
  8
Kontur
 62
   7
 39
0.100
  6
CONTINUOUS
 10
3.06300
 20
0.94100
 30
 0
 11
3.11500
 21
0.92500
  0
LINE
  8
Kontur
 62
   7
 39
0.100
  6
CONTINUOUS
 10
3.11500
 20
0.92500
 30
 0
 11
3.16800
 21
0.91000
  0
LINE
  8
Kontur
 62
   7
 39
0.100
  6
CONTINUOUS
 10
3.16800
 20
0.91000
 30
 0
 11
3.22000
 21
0.89800
  0
LINE
  8
Kontur
 62
   7
 39
0.100
  6
CONTINUOUS
 10
3.22000
 20
0.89800
 30
 0
 11
3.40000
 21
0.85800
  0
LINE
  8
Kontur
 62
   7
 39
0.100
  6
CONTINUOUS
 10
3.40000
 20
0.85800
 30
 0
 11
3.45300
 21
0.84700
  0
LINE
  8
Kontur
 62
   7
 39
0.100
  6
CONTINUOUS
 10
3.45300
 20
0.84700
 30
 0
 11
3.50700
 21
0.83800
  0
LINE
  8
Kontur
 62
   7
 39
0.100
  6
CONTINUOUS
 10
3.50700
 20
0.83800
 30
 0
 11
3.56200
 21
0.83100
  0
LINE
  8
Kontur
 62
   7
 39
0.100
  6
CONTINUOUS
 10
3.56200
 20
0.83100
 30
 0
 11
3.74500
 21
0.81100
  0
LINE
  8
Kontur
 62
   7
 39
0.100
  6
CONTINUOUS
 10
3.74500
 20
0.81100
 30
 0
 11
3.80000
 21
0.80600
  0
LINE
  8
Kontur
 62
   7
 39
0.100
  6
CONTINUOUS
 10
3.80000
 20
0.80600
 30
 0
 11
3.85400
 21
0.80300
  0
LINE
  8
Kontur
 62
   7
 39
0.100
  6
CONTINUOUS
 10
3.85400
 20
0.80300
 30
 0
 11
3.90800
 21
0.80200
  0
LINE
  8
Kontur
 62
   7
 39
0.100
  6
CONTINUOUS
 10
3.90800
 20
0.80200
 30
 0
 11
4.09200
 21
0.80200
  0
LINE
  8
Kontur
 62
   7
 39
0.100
  6
CONTINUOUS
 10
4.09200
 20
0.80200
 30
 0
 11
4.14700
 21
0.80300
  0
CIRCLE
  8
Kontur
 62
   7
 39
0.100
  6
CONTINUOUS
 10
4.00000
 20
4.00000
 30
 0
 40
1.70000
  0
ARC
  8
Kontur
 62
   7
 39
0.100
  6
CONTINUOUS
 10
129.19922
 20
18.40000
 30
 0
 40
2.50000
 50
90.00497
 51
189.97393
  0
LINE
  8
Kontur
 62
   7
 39
0.100
  6
CONTINUOUS
 10
126.73700
 20
17.96700
 30
 0
 11
127.88300
 21
11.46600
  0
ARC
  8
Kontur
 62
   7
 39
0.100
  6
CONTINUOUS
 10
130.34504
 20
11.90000
 30
 0
 40
2.50000
 50
189.99719
 51
269.97615
  0
LINE
  8
Kontur
 62
   7
 39
0.100
  6
CONTINUOUS
 10
130.34400
 20
9.40000
 30
 0
 11
143.05600
 21
9.40000
  0
ARC
  8
Kontur
 62
   7
 39
0.100
  6
CONTINUOUS
 10
143.05496
 20
11.90000
 30
 0
 40
2.50000
 50
270.02385
 51
350.00281
  0
LINE
  8
Kontur
 62
   7
 39
0.100
  6
CONTINUOUS
 10
145.51700
 20
11.46600
 30
 0
 11
146.66300
 21
17.96700
  0
ARC
  8
Kontur
 62
   7
 39
0.100
  6
CONTINUOUS
 10
144.20078
 20
18.40000
 30
 0
 40
2.50000
 50
350.02607
 51
449.99503
  0
LINE
  8
Kontur
 62
   7
 39
0.100
  6
CONTINUOUS
 10
144.20100
 20
20.90000
 30
 0
 11
129.19900
 21
20.90000
  0
CIRCLE
  8
Kontur
 62
   7
 39
0.100
  6
CONTINUOUS
 10
149.20000
 20
15.15000
 30
 0
 40
1.60000
  0
CIRCLE
  8
Kontur
 62
   7
 39
0.100
  6
CONTINUOUS
 10
124.20000
 20
15.15000
 30
 0
 40
1.60000
  0
ARC
  8
Kontur
 62
   7
 39
0.100
  6
CONTINUOUS
 10
77.02922
 20
18.40000
 30
 0
 40
2.50000
 50
90.00497
 51
189.97393
  0
LINE
  8
Kontur
 62
   7
 39
0.100
  6
CONTINUOUS
 10
74.56700
 20
17.96700
 30
 0
 11
75.71300
 21
11.46600
  0
ARC
  8
Kontur
 62
   7
 39
0.100
  6
CONTINUOUS
 10
78.17504
 20
11.90000
 30
 0
 40
2.50000
 50
189.99719
 51
269.97615
  0
LINE
  8
Kontur
 62
   7
 39
0.100
  6
CONTINUOUS
 10
78.17400
 20
9.40000
 30
 0
 11
90.88600
 21
9.40000
  0
ARC
  8
Kontur
 62
   7
 39
0.100
  6
CONTINUOUS
 10
90.88496
 20
11.90000
 30
 0
 40
2.50000
 50
270.02385
 51
350.00281
  0
LINE
  8
Kontur
 62
   7
 39
0.100
  6
CONTINUOUS
 10
93.34700
 20
11.46600
 30
 0
 11
94.49300
 21
17.96700
  0
ARC
  8
Kontur
 62
   7
 39
0.100
  6
CONTINUOUS
 10
92.03078
 20
18.40000
 30
 0
 40
2.50000
 50
350.02607
 51
449.99503
  0
LINE
  8
Kontur
 62
   7
 39
0.100
  6
CONTINUOUS
 10
92.03100
 20
20.90000
 30
 0
 11
77.02900
 21
20.90000
  0
CIRCLE
  8
Kontur
 62
   7
 39
0.100
  6
CONTINUOUS
 10
97.03000
 20
15.15000
 30
 0
 40
1.60000
  0
CIRCLE
  8
Kontur
 62
   7
 39
0.100
  6
CONTINUOUS
 10
72.03000
 20
15.15000
 30
 0
 40
1.60000
  0
ARC
  8
Kontur
 62
   7
 39
0.100
  6
CONTINUOUS
 10
19.67922
 20
18.40000
 30
 0
 40
2.50000
 50
90.00497
 51
189.97393
  0
LINE
  8
Kontur
 62
   7
 39
0.100
  6
CONTINUOUS
 10
17.21700
 20
17.96700
 30
 0
 11
18.36300
 21
11.46600
  0
ARC
  8
Kontur
 62
   7
 39
0.100
  6
CONTINUOUS
 10
20.82504
 20
11.90000
 30
 0
 40
2.50000
 50
189.99719
 51
269.97615
  0
LINE
  8
Kontur
 62
   7
 39
0.100
  6
CONTINUOUS
 10
20.82400
 20
9.40000
 30
 0
 11
55.53600
 21
9.40000
  0
ARC
  8
Kontur
 62
   7
 39
0.100
  6
CONTINUOUS
 10
55.53496
 20
11.90000
 30
 0
 40
2.50000
 50
270.02385
 51
350.00281
  0
LINE
  8
Kontur
 62
   7
 39
0.100
  6
CONTINUOUS
 10
57.99700
 20
11.46600
 30
 0
 11
59.14300
 21
17.96700
  0
ARC
  8
Kontur
 62
   7
 39
0.100
  6
CONTINUOUS
 10
56.68078
 20
18.40000
 30
 0
 40
2.50000
 50
350.02607
 51
449.99503
  0
LINE
  8
Kontur
 62
   7
 39
0.100
  6
CONTINUOUS
 10
56.68100
 20
20.90000
 30
 0
 11
19.67900
 21
20.90000
  0
CIRCLE
  8
Kontur
 62
   7
 39
0.100
  6
CONTINUOUS
 10
14.68000
 20
15.15000
 30
 0
 40
1.60000
  0
CIRCLE
  8
Kontur
 62
   7
 39
0.100
  6
CONTINUOUS
 10
61.68000
 20
15.15000
 30
 0
 40
1.60000
  0
CIRCLE
  8
Kontur
 62
   7
 39
0.100
  6
CONTINUOUS
 10
110.57000
 20
15.15000
 30
 0
 40
6.00000
  0
LINE
  8
Bezugspunkte
 62
   1
 39
0.100
  6
CONTINUOUS
 10
-0.49300
 20
0.00000
 30
 0
 11
0.49300
 21
0.00000
  0
LINE
  8
Bezugspunkte
 62
   1
 39
0.100
  6
CONTINUOUS
 10
0.00000
 20
-0.49300
 30
 0
 11
0.00000
 21
0.49300
  0
LINE
  8
Bezugspunkte
 62
   1
 39
0.100
  6
CONTINUOUS
 10
159.50700
 20
38.00000
 30
 0
 11
160.49300
 21
38.00000
  0
LINE
  8
Bezugspunkte
 62
   1
 39
0.100
  6
CONTINUOUS
 10
160.00000
 20
37.50700
 30
 0
 11
160.00000
 21
38.49300
  0
LINE
  8
Bezugspunkte
 62
   1
 39
0.100
  6
CONTINUOUS
 10
3.50700
 20
38.00000
 30
 0
 11
4.49300
 21
38.00000
  0
LINE
  8
Bezugspunkte
 62
   1
 39
0.100
  6
CONTINUOUS
 10
4.00000
 20
37.50700
 30
 0
 11
4.00000
 21
38.49300
  0
LINE
  8
Bezugspunkte
 62
   1
 39
0.100
  6
CONTINUOUS
 10
159.50700
 20
4.00000
 30
 0
 11
160.49300
 21
4.00000
  0
LINE
  8
Bezugspunkte
 62
   1
 39
0.100
  6
CONTINUOUS
 10
160.00000
 20
3.50700
 30
 0
 11
160.00000
 21
4.49300
  0
LINE
  8
Bezugspunkte
 62
   1
 39
0.100
  6
CONTINUOUS
 10
3.50700
 20
4.00000
 30
 0
 11
4.49300
 21
4.00000
  0
LINE
  8
Bezugspunkte
 62
   1
 39
0.100
  6
CONTINUOUS
 10
4.00000
 20
3.50700
 30
 0
 11
4.00000
 21
4.49300
  0
LINE
  8
Bezugspunkte
 62
   1
 39
0.100
  6
CONTINUOUS
 10
136.20700
 20
15.15000
 30
 0
 11
137.19300
 21
15.15000
  0
LINE
  8
Bezugspunkte
 62
   1
 39
0.100
  6
CONTINUOUS
 10
136.70000
 20
14.65700
 30
 0
 11
136.70000
 21
15.64300
  0
LINE
  8
Bezugspunkte
 62
   1
 39
0.100
  6
CONTINUOUS
 10
148.70700
 20
15.15000
 30
 0
 11
149.69300
 21
15.15000
  0
LINE
  8
Bezugspunkte
 62
   1
 39
0.100
  6
CONTINUOUS
 10
149.20000
 20
14.65700
 30
 0
 11
149.20000
 21
15.64300
  0
LINE
  8
Bezugspunkte
 62
   1
 39
0.100
  6
CONTINUOUS
 10
123.70700
 20
15.15000
 30
 0
 11
124.69300
 21
15.15000
  0
LINE
  8
Bezugspunkte
 62
   1
 39
0.100
  6
CONTINUOUS
 10
124.20000
 20
14.65700
 30
 0
 11
124.20000
 21
15.64300
  0
LINE
  8
Bezugspunkte
 62
   1
 39
0.100
  6
CONTINUOUS
 10
136.20700
 20
15.15000
 30
 0
 11
137.19300
 21
15.15000
  0
LINE
  8
Bezugspunkte
 62
   1
 39
0.100
  6
CONTINUOUS
 10
136.70000
 20
14.65700
 30
 0
 11
136.70000
 21
15.64300
  0
LINE
  8
Bezugspunkte
 62
   1
 39
0.100
  6
CONTINUOUS
 10
84.03700
 20
15.15000
 30
 0
 11
85.02300
 21
15.15000
  0
LINE
  8
Bezugspunkte
 62
   1
 39
0.100
  6
CONTINUOUS
 10
84.53000
 20
14.65700
 30
 0
 11
84.53000
 21
15.64300
  0
LINE
  8
Bezugspunkte
 62
   1
 39
0.100
  6
CONTINUOUS
 10
96.53700
 20
15.15000
 30
 0
 11
97.52300
 21
15.15000
  0
LINE
  8
Bezugspunkte
 62
   1
 39
0.100
  6
CONTINUOUS
 10
97.03000
 20
14.65700
 30
 0
 11
97.03000
 21
15.64300
  0
LINE
  8
Bezugspunkte
 62
   1
 39
0.100
  6
CONTINUOUS
 10
71.53700
 20
15.15000
 30
 0
 11
72.52300
 21
15.15000
  0
LINE
  8
Bezugspunkte
 62
   1
 39
0.100
  6
CONTINUOUS
 10
72.03000
 20
14.65700
 30
 0
 11
72.03000
 21
15.64300
  0
LINE
  8
Bezugspunkte
 62
   1
 39
0.100
  6
CONTINUOUS
 10
84.03700
 20
15.15000
 30
 0
 11
85.02300
 21
15.15000
  0
LINE
  8
Bezugspunkte
 62
   1
 39
0.100
  6
CONTINUOUS
 10
84.53000
 20
14.65700
 30
 0
 11
84.53000
 21
15.64300
  0
LINE
  8
Bezugspunkte
 62
   1
 39
0.100
  6
CONTINUOUS
 10
37.68700
 20
15.15000
 30
 0
 11
38.67300
 21
15.15000
  0
LINE
  8
Bezugspunkte
 62
   1
 39
0.100
  6
CONTINUOUS
 10
38.18000
 20
14.65700
 30
 0
 11
38.18000
 21
15.64300
  0
LINE
  8
Bezugspunkte
 62
   1
 39
0.100
  6
CONTINUOUS
 10
14.18700
 20
15.15000
 30
 0
 11
15.17300
 21
15.15000
  0
LINE
  8
Bezugspunkte
 62
   1
 39
0.100
  6
CONTINUOUS
 10
14.68000
 20
14.65700
 30
 0
 11
14.68000
 21
15.64300
  0
LINE
  8
Bezugspunkte
 62
   1
 39
0.100
  6
CONTINUOUS
 10
61.18700
 20
15.15000
 30
 0
 11
62.17300
 21
15.15000
  0
LINE
  8
Bezugspunkte
 62
   1
 39
0.100
  6
CONTINUOUS
 10
61.68000
 20
14.65700
 30
 0
 11
61.68000
 21
15.64300
  0
LINE
  8
Bezugspunkte
 62
   1
 39
0.100
  6
CONTINUOUS
 10
37.68700
 20
15.15000
 30
 0
 11
38.67300
 21
15.15000
  0
LINE
  8
Bezugspunkte
 62
   1
 39
0.100
  6
CONTINUOUS
 10
38.18000
 20
14.65700
 30
 0
 11
38.18000
 21
15.64300
  0
LINE
  8
Bezugspunkte
 62
   1
 39
0.100
  6
CONTINUOUS
 10
110.07700
 20
15.15000
 30
 0
 11
111.06300
 21
15.15000
  0
LINE
  8
Bezugspunkte
 62
   1
 39
0.100
  6
CONTINUOUS
 10
110.57000
 20
14.65700
 30
 0
 11
110.57000
 21
15.64300
  0
ENDSEC
  0
EOF
